Song name
# A B C D E F G H I J K L M N O P Q R S T U V W X Y Z

Obscura - Anticosmic Overload tab

Anticosmic Overload By Obscura

Turning : D,A,F,C,G,D

Left Guitar


     Q                       H         H         
|---------------------------------------------|
|---------------------------------------------|
|--8--------------------------------11--------|
|--7------------------------------------------|
|--6---------------------------------9--------|
|---------------------------------------------|


                                   PM    PM    PM    PM  
  E                                E  E  E  E  E  E  E   
--------------------------------------------------------|
--------------------------------------------------------|
--9-----------------------------------9-----9-----9-----|
--------------------------------------------------------|
-----------------------------------7-----7-----7-----7--|
--------------------------------------------------------|


     PM PM    PM PM    PM       PM    PM    PM    PM  
  E  E  E  E  E  E  E  E     E  E  E  E  E  E  E  E   
--------------------------|--------------------------|
--------------------------|--------------------------|
--8--------8--------8-----|--5-----5-----5-----5-----|
--------------------------|--------------------------|
-----6--6-----6--6-----6--|-----3-----3-----3-----3--|
--------------------------|--------------------------|


     PM PM    PM PM                  PM    PM    PM    PM  
                    |---3---|                              
  E  E  E  E  E  E  E   E   E     E  E  E  E  E  E  E  E   
-------------------------------|--------------------------|
-------------------------------|--------------------------|
--4----------------------------|--9-----9-----9-----9-----|
-----------5--------4h--5h--7--|--------------------------|
-----2--2-----2--2-------------|-----7-----7-----7-----7--|
-------------------------------|--------------------------|


     PM PM    PM PM    PM       PM    PM    PM    PM  
  E  E  E  E  E  E  E  E     E  E  E  E  E  E  E  E   
--------------------------|--------------------------|
--------------------------|--------------------------|
--8--------8--------8-----|--5-----5-----5-----5-----|
--------------------------|--------------------------|
-----6--6-----6--6-----6--|-----3-----3-----3-----3--|
--------------------------|--------------------------|


     PM PM    PM PM           PM PM PM PM PM PM PM PM PM PM PM PM  
                              |--3--|  |--3--|  |--3--|  |--3--|   
  E  E  E  E  E  E  E   E     E  E  E  E  E  E  E  E  E  E  E  E   
---------------------------|--------------------------------------|
---------------------------|--------------------------------------|
--4------------------------|--------------------------------------|
-----------5--------5p--4--|--------------------------------------|
-----2--2-----2--2---------|--7--7--7--7--7--7--7--7--7--7--7--7--|
---------------------------|--------------------------------------|


  PM PM PM PM PM PM PM PM PM PM PM PM  
  |--3--|  |--3--|  |--3--|  |--3--|   
  E  E  E  E  E  E  E  E  E  E  E  E   
--------------------------------------|
--------------------------------------|
--------------------------------------|
--------------------------------------|
--9--9--9--9--9--9--9--9--9--9--9--9--|
--------------------------------------|


   PM  PM  PM  PM  PM  PM  PM  PM  PM  PM  PM  PM  
   |---3---|   |---3---|   |---3---|   |---3---|   
   E   E   E   E   E   E   E   E   E   E   E   E   
--------------------------------------------------|
--------------------------------------------------|
--------------------------------------------------|
--------------------------------------------------|
--10--10--10--10--10--10--10--10--10--10--10--10--|
--------------------------------------------------|


   PM  PM  PM  PM  PM  PM PM PM PM PM PM PM             PM PM PM PM PM PM  
   |---3---|   |---3---|  |--3--|  |--3--|              |--3--|  |--3--|   
   E   E   E   E   E   E  E  E  E  E  E  E     H        E  E  E  E  E  E   
--------------------------------------------|-----------------------------|
--------------------------------------------|-----------------------------|
--------------------------------------------|--5--------------------------|
--------------------------------------------|-----------4--4--4--4--4--4--|
--10--10--10--10--10--10--9--9--9--7--7--7--|--6--------------------------|
--------------------------------------------|-----------------------------|


           PM PM PM PM PM PM             PM PM PM PM PM PM  
           |--3--|  |--3--|              |--3--|  |--3--|   
  H        E  E  E  E  E  E     H        E  E  E  E  E  E   
-----------------------------|-----------------------------|
-----------------------------|-----------------------------|
--4--------------------------|--2--------------------------|
-----------------------------|--2--------------------------|
--2--------3--3--3--3--3--3--|--0--------0--0--0--0--0--0--|
-----------------------------|-----------------------------|


                                PM    PM    PM    PM  
  |--3--|                                             
  E  E  E  Q    Q    Q       E  E  E  E  E  E  E  E   
--------------------------|--------------------------|
--------------------------|--------------------------|
--------------------------|--9-----9-----9-----9-----|
--5--L--L--1----4----7----|--------------------------|
--5--L--L--3----6----9----|-----7-----7-----7-----7--|
--3--L--L-----------------|--------------------------|


     PM PM    PM PM    PM       PM    PM    PM    PM  
  E  E  E  E  E  E  E  E     E  E  E  E  E  E  E  E   
--------------------------|--------------------------|
--------------------------|--------------------------|
--8--------8--------8-----|--5-----5-----5-----5-----|
--------------------------|--------------------------|
-----6--6-----6--6-----6--|-----3-----3-----3-----3--|
--------------------------|--------------------------|


     PM PM    PM PM                  PM    PM    PM    PM  
                    |---3---|                              
  E  E  E  E  E  E  E   E   E     E  E  E  E  E  E  E  E   
-------------------------------|--------------------------|
-------------------------------|--------------------------|
--4----------------------------|--9-----9-----9-----9-----|
-----------5--------4h--5h--7--|--------------------------|
-----2--2-----2--2-------------|-----7-----7-----7-----7--|
-------------------------------|--------------------------|


     PM PM    PM PM    PM       PM    PM    PM    PM  
  E  E  E  E  E  E  E  E     E  E  E  E  E  E  E  E   
--------------------------|--------------------------|
--------------------------|--------------------------|
--8--------8--------8-----|--5-----5-----5-----5-----|
--------------------------|--------------------------|
-----6--6-----6--6-----6--|-----3-----3-----3-----3--|
--------------------------|--------------------------|


     PM PM    PM PM           PM PM PM PM PM PM PM PM PM PM PM PM  
                              |--3--|  |--3--|  |--3--|  |--3--|   
  E  E  E  E  E  E  E   E     E  E  E  E  E  E  E  E  E  E  E  E   
---------------------------|--------------------------------------|
---------------------------|--------------------------------------|
--4------------------------|--------------------------------------|
-----------5--------5p--4--|--------------------------------------|
-----2--2-----2--2---------|--7--7--7--7--7--7--7--7--7--7--7--7--|
---------------------------|--------------------------------------|


  PM PM PM PM PM PM PM PM PM PM PM PM  
  |--3--|  |--3--|  |--3--|  |--3--|   
  E  E  E  E  E  E  E  E  E  E  E  E   
--------------------------------------|
--------------------------------------|
--------------------------------------|
--------------------------------------|
--9--9--9--9--9--9--9--9--9--9--9--9--|
--------------------------------------|


   PM  PM  PM  PM  PM  PM  PM  PM  PM  PM  PM  PM  
   |---3---|   |---3---|   |---3---|   |---3---|   
   E   E   E   E   E   E   E   E   E   E   E   E   
--------------------------------------------------|
--------------------------------------------------|
--------------------------------------------------|
--------------------------------------------------|
--10--10--10--10--10--10--10--10--10--10--10--10--|
--------------------------------------------------|


   PM  PM  PM  PM  PM  PM PM PM PM PM PM PM             PM PM PM PM PM PM  
   |---3---|   |---3---|  |--3--|  |--3--|              |--3--|  |--3--|   
   E   E   E   E   E   E  E  E  E  E  E  E     H        E  E  E  E  E  E   
--------------------------------------------|-----------------------------|
--------------------------------------------|-----------------------------|
--------------------------------------------|--5--------------------------|
--------------------------------------------|-----------4--4--4--4--4--4--|
--10--10--10--10--10--10--9--9--9--7--7--7--|--6--------------------------|
--------------------------------------------|-----------------------------|


           PM PM PM PM PM PM             PM PM PM PM PM PM  
           |--3--|  |--3--|              |--3--|  |--3--|   
  H        E  E  E  E  E  E     H        E  E  E  E  E  E   
-----------------------------|-----------------------------|
-----------------------------|-----------------------------|
--4--------------------------|--2--------------------------|
-----------------------------|--2--------------------------|
--2--------3--3--3--3--3--3--|--0--------0--0--0--0--0--0--|
-----------------------------|-----------------------------|


                                PM PM  PM PM PM       PM PM  PM PM PM  
  |--3--|                                                              
  E  E  E  Q    Q    Q       E  E  E   E  E  E     E  E  E   E  E  E   
--------------------------|---------------------|---------------------|
--------------------------|---------------------|---------------------|
--------------------------|--9------------------|--9------------------|
--5--L--L--1----4----7----|---------------------|---------------------|
--5--L--L--3----6----9----|-----7--7--10--9--7--|-----7--7--10--9--7--|
--3--L--L-----------------|---------------------|---------------------|


     PM PM PM PM PM       PM PM PM PM PM       PM PM  PM PM PM  
  E  E  E  E  E  E     E  E  E  E  E  E     E  E  E   E  E  E   
--------------------|--------------------|---------------------|
--------------------|--------------------|---------------------|
--8-----------------|--8-----------------|--9------------------|
--------------------|--------------------|---------------------|
-----6--6--9--8--6--|-----6--6--6--8--9--|-----7--7--10--9--7--|
--------------------|--------------------|---------------------|


     PM PM  PM PM PM       PM PM PM PM PM       PM PM    PM PM  
  E  E  E   E  E  E     E  E  E  E  E  E     E  E  E  E  E  E   
---------------------|--------------------|--------------------|
---------------------|--------------------|--------------------|
--9------------------|--8-----------------|--8--------8--------|
---------------------|--------------------|-----7--------7-----|
-----7--7--10--9--7--|-----6--6--9--8--6--|--------6--------6--|
---------------------|--------------------|--------------------|


     PM PM PM PM PM       PM PM PM PM PM       PM PM PM PM PM  
  E  E  E  E  E  E     E  E  E  E  E  E     E  E  E  E  E  E   
--------------------|--------------------|--------------------|
--------------------|--------------------|--------------------|
--5-----------------|--5-----------------|--4-----------------|
--------------------|--------------------|--------------------|
-----3--3--6--5--3--|-----3--3--6--5--3--|-----2--2--5--4--2--|
--------------------|--------------------|--------------------|


     PM PM PM PM PM       PM PM PM PM PM       PM PM PM PM PM  
  E  E  E  E  E  E     E  E  E  E  E  E     E  E  E  E  E  E   
--------------------|--------------------|--------------------|
--------------------|--------------------|--------------------|
--4-----------------|--5-----------------|--5-----------------|
--------------------|--------------------|--------------------|
-----2--2--2--4--5--|-----3--3--6--5--3--|-----3--3--6--5--3--|
--------------------|--------------------|--------------------|


                        PM  PM  PM         PM  PM  PM  PM  PM  
  E  H        H         E   E   E      E   E   E   E   E   E   
-----------------------------------|--------------------------|
-----------------------------------|--------------------------|
--4--------------------------------|--16----------------------|
-----------------------------------|--------------------------|
-----------------------14--16--17--|------14--14--17--16--14--|
-----------------------------------|--------------------------|


       PM  PM  PM  PM  PM         PM  PM  PM  PM  PM  
   E   E   E   E   E   E      E   E   E   E   E   E   
--------------------------|--------------------------|
--------------------------|--------------------------|
--16----------------------|--15----------------------|
--------------------------|--------------------------|
------14--14--17--16--14--|------13--13--16--15--13--|
--------------------------|--------------------------|


       PM  PM  PM  PM  PM         PM  PM  PM  PM  PM  
   E   E   E   E   E   E      E   E   E   E   E   E   
--------------------------|--------------------------|
--------------------------|--------------------------|
--15----------------------|--16----------------------|
--------------------------|--------------------------|
------13--13--13--15--16--|------14--14--17--16--14--|
--------------------------|--------------------------|


       PM  PM  PM  PM  PM         PM  PM  PM  PM  PM  
   E   E   E   E   E   E      E   E   E   E   E   E   
--------------------------|--------------------------|
--------------------------|--------------------------|
--16----------------------|--15----------------------|
--------------------------|--------------------------|
------14--14--17--16--14--|------13--13--16--15--13--|
--------------------------|--------------------------|


                                PM PM PM PM PM       PM PM PM PM PM  
   E   E   E   E   E   E     E  E  E  E  E  E     E  E  E  E  E  E   
--------------------------|--------------------|--------------------|
--------------------------|--------------------|--------------------|
--15----------15----------|--8-----------------|--8-----------------|
------14----------14------|--------------------|--------------------|
----------13----------13--|-----6--6--9--8--6--|-----6--6--9--8--6--|
--------------------------|--------------------|--------------------|


     PM PM PM PM PM       PM PM PM PM PM       PM PM PM PM PM  
  E  E  E  E  E  E     E  E  E  E  E  E     E  E  E  E  E  E   
--------------------|--------------------|--------------------|
--------------------|--------------------|--------------------|
--7-----------------|--7-----------------|--8-----------------|
--------------------|--------------------|--------------------|
-----5--5--8--7--5--|-----5--5--5--7--8--|-----6--6--9--8--6--|
--------------------|--------------------|--------------------|


     PM PM PM PM PM                                  PM    PM    PM    PM  
  E  E  E  E  E  E     Q    H         H           E  E  E  E  E  E  E  E   
--------------------|--------------------------|--------------------------|
--------------------|--------------------------|--------------------------|
--8-----------------|--8-------------11--------|--9-----9-----9-----9-----|
--------------------|--7-----------------------|--------------------------|
-----6--6--9--8--6--|--6--------------9--------|-----7-----7-----7-----7--|
--------------------|--------------------------|--------------------------|


     PM PM    PM PM    PM       PM    PM    PM    PM  
  E  E  E  E  E  E  E  E     E  E  E  E  E  E  E  E   
--------------------------|--------------------------|
--------------------------|--------------------------|
--8--------8--------8-----|--5-----5-----5-----5-----|
--------------------------|--------------------------|
-----6--6-----6--6-----6--|-----3-----3-----3-----3--|
--------------------------|--------------------------|


     PM PM    PM PM                  PM    PM    PM    PM  
                    |---3---|                              
  E  E  E  E  E  E  E   E   E     E  E  E  E  E  E  E  E   
-------------------------------|--------------------------|
-------------------------------|--------------------------|
--4----------------------------|--9-----9-----9-----9-----|
-----------5--------4h--5h--7--|--------------------------|
-----2--2-----2--2-------------|-----7-----7-----7-----7--|
-------------------------------|--------------------------|


     PM PM    PM PM    PM       PM    PM    PM    PM  
  E  E  E  E  E  E  E  E     E  E  E  E  E  E  E  E   
--------------------------|--------------------------|
--------------------------|--------------------------|
--8--------8--------8-----|--5-----5-----5-----5-----|
--------------------------|--------------------------|
-----6--6-----6--6-----6--|-----3-----3-----3-----3--|
--------------------------|--------------------------|


     PM PM    PM PM           PM PM PM PM PM PM PM PM PM PM PM PM  
                              |--3--|  |--3--|  |--3--|  |--3--|   
  E  E  E  E  E  E  E   E     E  E  E  E  E  E  E  E  E  E  E  E   
---------------------------|--------------------------------------|
---------------------------|--------------------------------------|
--4------------------------|--------------------------------------|
-----------5--------5p--4--|--------------------------------------|
-----2--2-----2--2---------|--7--7--7--7--7--7--7--7--7--7--7--7--|
---------------------------|--------------------------------------|


  PM PM PM PM PM PM PM PM PM PM PM PM  
  |--3--|  |--3--|  |--3--|  |--3--|   
  E  E  E  E  E  E  E  E  E  E  E  E   
--------------------------------------|
--------------------------------------|
--------------------------------------|
--------------------------------------|
--9--9--9--9--9--9--9--9--9--9--9--9--|
--------------------------------------|


   PM  PM  PM  PM  PM  PM  PM  PM  PM  PM  PM  PM  
   |---3---|   |---3---|   |---3---|   |---3---|   
   E   E   E   E   E   E   E   E   E   E   E   E   
--------------------------------------------------|
--------------------------------------------------|
--------------------------------------------------|
--------------------------------------------------|
--10--10--10--10--10--10--10--10--10--10--10--10--|
--------------------------------------------------|


   PM  PM  PM  PM  PM  PM PM PM PM PM PM PM             PM PM PM PM PM PM  
   |---3---|   |---3---|  |--3--|  |--3--|              |--3--|  |--3--|   
   E   E   E   E   E   E  E  E  E  E  E  E     H        E  E  E  E  E  E   
--------------------------------------------|-----------------------------|
--------------------------------------------|-----------------------------|
--------------------------------------------|--5--------------------------|
--------------------------------------------|-----------4--4--4--4--4--4--|
--10--10--10--10--10--10--9--9--9--7--7--7--|--6--------------------------|
--------------------------------------------|-----------------------------|


           PM PM PM PM PM PM             PM PM PM PM PM PM  
           |--3--|  |--3--|              |--3--|  |--3--|   
  H        E  E  E  E  E  E     H        E  E  E  E  E  E   
-----------------------------|-----------------------------|
-----------------------------|-----------------------------|
--4--------------------------|--2--------------------------|
-----------------------------|--2--------------------------|
--2--------3--3--3--3--3--3--|--0--------0--0--0--0--0--0--|
-----------------------------|-----------------------------|


                             PM    PM PM PM PM PM     
  |--3--|                                             
  E  E  E  Q    Q    Q       E  E  E  E  E  E  E  E   
--------------------------|--------------------------|
--------------------------|--------------------------|
--------------------------|--------------------------|
--5--L--L--1----4----7----|-----5--------------2--1--|
--5--L--L--3----6----9----|-----------2--0--2--------|
--3--L--L-----------------|--3-----3-----------------|


  PM    PM    PM PM          PM PM PM PM PM PM PM       PM PM PM PM PM PM     
  E  E  E  E  E  E  E  E     E  E  E  E  E  E  E  E  E  E  E  E  E  E  E  E   
--------------------------|--------------------------------------------------|
--------------------------|--------------------------------------------------|
--------------------------|--------------------------------------------------|
-----1-----2-----1--4--5--|--------------------------------------------------|
--2-----3-----3-----------|--------------2--2--------------------2--------6--|
--------------------------|--0--3--3--0--------3--0--L--2--3--5-----5--2-----|


  PM PM PM PM PM PM       PM PM PM PM PM PM        
  E  E  E  E  E  E  E  E  E  E  E  E  E  E  E  E   
--------------------------------------------------|
--------------------------------------------------|
--------------------------------------------2--4--|
-----------------------------4--1-----5--2--------|
-----2--------3-----2--L-----------2--------------|
--2-----2--0-----2--------2-----------------------|


  PM PM PM PM PM PM PM       PM PM PM PM PM PM     
  E  E  E  E  E  E  E  E  E  E  E  E  E  E  E  E   
--------------------------------------------------|
--------------------------------------------------|
--------------------------------------------------|
--------------------------------------------------|
--------------2--2--------------------2--------6--|
--0--3--3--0--------3--0--L--2--3--5-----5--2-----|


  PM PM PM PM PM PM       PM PM PM PM PM PM        
  E  E  E  E  E  E  E  E  E  E  E  E  E  E  E  E   
--------------------------------------------------|
--------------------------------------------------|
--------------------------------------------2--4--|
-----------------------------4--1-----5--2--------|
-----2--------3-----2--L-----------2--------------|
--2-----2--0-----2--------2-----------------------|


  PM PM PM PM PM PM PM       PM PM PM PM PM PM     
  E  E  E  E  E  E  E  E  E  E  E  E  E  E  E  E   
--------------------------------------------------|
--------------------------------------------------|
--------------------------------------------------|
--------------------------------------------------|
--------------2--2--------------------2--------6--|
--0--3--3--0--------3--0--L--2--3--5-----5--2-----|


  PM PM PM PM PM PM       PM PM PM PM PM PM        
  E  E  E  E  E  E  E  E  E  E  E  E  E  E  E  E   
--------------------------------------------------|
--------------------------------------------------|
--------------------------------------------2--4--|
-----------------------------4--1-----5--2--------|
-----2--------3-----2--L-----------2--------------|
--2-----2--0-----2--------2-----------------------|


  PM PM PM PM PM PM PM       PM PM PM PM PM PM     
  E  E  E  E  E  E  E  E  E  E  E  E  E  E  E  E   
--------------------------------------------------|
--------------------------------------------------|
--------------------------------------------------|
--------------------------------------------------|
--------------2--2--------------------2--------6--|
--0--3--3--0--------3--0--L--2--3--5-----5--2-----|


  PM PM PM PM PM PM       PM PM PM PM PM PM        
  E  E  E  E  E  E  E  E  E  E  E  E  E  E  E  E   
--------------------------------------------------|
--------------------------------------------------|
--------------------------------------------2--4--|
-----------------------------4--1-----5--2--------|
-----2--------3-----2--L-----------2--------------|
--2-----2--0-----2--------2-----------------------|


  PM PM PM PM PM PM PM PM PM PM PM    PM PM PM PM PM PM PM PM PM PM PM  
  S  S  E  S  S  E  S  S  E  E  E     S  S  E  E  E  S  S  E  S  S  E   
-----------------------------------|-----------------------------------|
-----------------------------------|-----------------------------------|
-----------------------------------|-----------------------------------|
-----------------------------------|-----------------------------------|
-----------------------------------|--2--2--2--1--2--3--3--3-----------|
--0--0--0--2--2--2--3--3--3--2--3--|--------------------------2--2--2--|


  PM PM PM PM PM PM PM PM PM PM PM PM    PM PM PM PM PM PM PM PM PM PM PM PM  
  S  S  E  S  S  E  S  S  E  S  S  E     S  S  E  S  S  E  S  S  E  S  S  E   
--------------------------------------|--------------------------------------|
--------------------------------------|--------------------------------------|
--------------------------------------|--------------------------------------|
--------------------------------------|--------------------------------------|
--------------------------------------|--2--2--2--0--0--0--2--2--2-----------|
--0--0--0--2--2--2--3--3--3--0--0--0--|-----------------------------2--2--2--|


  PM PM PM PM PM PM PM PM PM PM PM    PM PM PM PM PM PM PM PM PM PM PM  
  S  S  E  S  S  E  S  S  E  E  E     S  S  E  E  E  S  S  E  S  S  E   
-----------------------------------|-----------------------------------|
-----------------------------------|-----------------------------------|
-----------------------------------|-----------------------------------|
-----------------------------------|-----------------------------------|
-----------------------------------|-----------------------------------|
--0--0--0--2--2--2--3--3--3--2--3--|--3--3--3--2--3--5--5--5--5--5--5--|


  PM PM PM PM PM PM PM PM PM PM PM PM    PM PM PM PM PM PM PM PM PM PM PM PM  
  S  S  E  S  S  E  S  S  E  S  S  E     S  S  E  S  S  E  S  S  E  S  S  E   
--------------------------------------|--------------------------------------|
--------------------------------------|--------------------------------------|
--------------------------------------|--------------------------------------|
-----------------------------5--5--5--|--4--4--4--5--5--5--7--7--7--9--9--9--|
--------------------------------------|--------------------------------------|
--3--3--3--5--5--5--7--7--7-----------|--------------------------------------|


  PM PM PM PM PM PM PM PM PM PM PM    PM PM PM PM PM PM PM PM PM PM PM  
  S  S  E  S  S  E  S  S  E  E  E     S  S  E  E  E  S  S  E  S  S  E   
-----------------------------------|-----------------------------------|
-----------------------------------|-----------------------------------|
-----------------------------------|-----------------------------------|
-----------------------------------|-----------------------------------|
-----------------------------------|--2--2--2--1--2--3--3--3-----------|
--0--0--0--2--2--2--3--3--3--2--3--|--------------------------2--2--2--|


  PM PM PM PM PM PM PM PM PM PM PM PM    PM PM PM PM PM PM PM PM PM PM PM PM  
  S  S  E  S  S  E  S  S  E  S  S  E     S  S  E  S  S  E  S  S  E  S  S  E   
--------------------------------------|--------------------------------------|
--------------------------------------|--------------------------------------|
--------------------------------------|--------------------------------------|
--------------------------------------|--------------------------------------|
--------------------------------------|--2--2--2--0--0--0--2--2--2-----------|
--0--0--0--2--2--2--3--3--3--0--0--0--|-----------------------------2--2--2--|


  PM PM PM PM PM PM PM PM PM PM PM    PM PM PM PM PM PM PM PM PM PM PM  
  S  S  E  S  S  E  S  S  E  E  E     S  S  E  E  E  S  S  E  S  S  E   
-----------------------------------|-----------------------------------|
-----------------------------------|-----------------------------------|
-----------------------------------|-----------------------------------|
-----------------------------------|-----------------------------------|
-----------------------------------|-----------------------------------|
--0--0--0--2--2--2--3--3--3--2--3--|--3--3--3--2--3--5--5--5--5--5--5--|


  PM PM PM PM PM PM PM PM PM PM PM PM    PM PM PM PM PM PM PM PM PM PM PM PM  
  S  S  E  S  S  E  S  S  E  S  S  E     S  S  E  S  S  E  S  S  E  S  S  E   
--------------------------------------|--------------------------------------|
--------------------------------------|--------------------------------------|
--------------------------------------|--------------------------------------|
-----------------------------5--5--5--|--4--4--4--5--5--5--7--7--7--9--9--9--|
--------------------------------------|--------------------------------------|
--3--3--3--5--5--5--7--7--7-----------|--------------------------------------|


  Q    Q    Q    Q    Q    Q    Q    Q      
-------------------------------------------|
-------------------------------------------|
-----------------4----2--------------------|
--5----2----5--------------4----1----5~----|
-------------------------------------------|
-------------------------------------------|


  Q    Q    Q    Q    Q    Q    Q    Q      
-------------------------------------------|
-------------------------------------------|
-----------------4----5----2---------------|
--L----2----5-------------------1----5~----|
-------------------------------------------|
-------------------------------------------|


  Q    Q    Q    Q    Q    Q    Q    Q      
-------------------------------------------|
-------------------------------------------|
-----------------4----2--------------------|
--L----2----5--------------4----1----2~----|
-------------------------------------------|
-------------------------------------------|


                           PM PM PM           
  Q    Q    Q    Q    Q    E  E  E  E  E  E   
---------------------------------------------|
---------------------------------------------|
---------------------------------------4--2--|
--L--------------2----1-------------1--------|
-------0----2--------------0--2--3-----------|
---------------------------------------------|


  Q    Q    Q    Q    Q    Q    Q    Q      
-------------------------------------------|
-------------------------------------------|
-----------------4----2--------------------|
--5----2----5--------------4----1----5~----|
-------------------------------------------|
-------------------------------------------|


  Q    Q    Q    Q    Q    Q    Q    Q      
-------------------------------------------|
-------------------------------------------|
-----------------4----5----2---------------|
--L----2----5-------------------1----5~----|
-------------------------------------------|
-------------------------------------------|


  Q    Q    Q    Q    Q    Q    Q    Q      
-------------------------------------------|
-------------------------------------------|
-----------------4----2--------------------|
--L----2----5--------------4----1----2~----|
-------------------------------------------|
-------------------------------------------|


                           PM PM PM           
  Q    Q    Q    Q    Q    E  E  E  E  E  E   
---------------------------------------------|
---------------------------------------------|
---------------------------------------4--2--|
--L--------------2----1-------------1--------|
-------0----2--------------0--2--3-----------|
---------------------------------------------|


  Q    Q    Q    Q    Q    Q    Q    Q      
-------------------------------------------|
-------------------------------------------|
-----------------4----2--------------------|
--5----2----5--------------4----1----5~----|
-------------------------------------------|
-------------------------------------------|


  Q    Q    Q    Q    Q    Q    Q    Q      
-------------------------------------------|
-------------------------------------------|
-----------------4----5----2---------------|
--L----2----5-------------------4----5~----|
-------------------------------------------|
-------------------------------------------|


  Q    Q    Q    Q    Q    Q    Q    Q      
-------------------------------------------|
-------------------------------------------|
-----------------4----2--------------------|
--L----2----5--------------4---------5~----|
--------------------------------2----------|
-------------------------------------------|


                           PM PM PM           
  Q    Q    Q    Q    Q    E  E  E  E  E  E   
---------------------------------------------|
---------------------------------------------|
---------------------------------------4--2--|
--L----4----5----5----4-------------1--------|
---------------------------0--2--3-----------|
---------------------------------------------|


  Q    Q    Q    Q    Q    Q    Q    Q      
-------------------------------------------|
-------------------------------------------|
-----------------4----2--------------------|
--5----2----5--------------4----1----5~----|
-------------------------------------------|
-------------------------------------------|


  Q    Q    Q    Q    Q    Q    Q    Q      
-------------------------------------------|
-------------------------------------------|
-----------------4----5----2---------------|
--L----2----5-------------------4----5~----|
-------------------------------------------|
-------------------------------------------|


  Q    Q    Q    Q    Q    Q    Q    Q      
-------------------------------------------|
-------------------------------------------|
-----------------4----2--------------------|
--L----2----5--------------4---------5~----|
--------------------------------2----------|
-------------------------------------------|


                           PM PM PM           
  Q    Q    Q    Q    Q    E  E  E  E  E  E   
---------------------------------------------|
---------------------------------------------|
---------------------------------------4--2--|
--L----4----5----5----4-------------1--------|
---------------------------0--2--3-----------|
---------------------------------------------|


       PM PM                                     
  Q    E  E  Q    E  Q.     Q    Q    Q    Q     
--------------------------------------0---------|
------------------------------------------------|
---------------------------------0---------3----|
--2----------3-------5------6----L----L----5----|
--2----------3-------5--------------------------|
--0----0--0--4-------6------4----L----L---------|


  Q    Q    Q    Q    Q    Q    Q    Q.     Q.      
-------0----L----L-------------------4-------------|
------------0----L--------------6----L------9------|
-----------------3---------7----L----L-------------|
--2-------------------5----L----L----L------6------|
--2------------------------------------------------|
--0------------------------------------------------|


       PM PM                                     
  Q    E  E  Q    E  Q.     Q    Q    Q    Q     
--------------------------------------0---------|
------------------------------------------------|
---------------------------------0---------3----|
--2----------3-------5------6----L----L----5----|
--2----------3-------5--------------------------|
--0----0--0--4-------6------4----L----L---------|


  Q    Q    Q    Q    Q    Q    Q    Q.     Q.      
-------0----L----L-------------------4-------------|
------------0----L--------------6----L------9------|
-----------------3---------7----L----L-------------|
--2-------------------5----L----L----L------6------|
--2------------------------------------------------|
--0------------------------------------------------|


       PM PM                                     
  Q    E  E  Q    E  Q.     Q    Q    Q    Q     
--------------------------------------0---------|
------------------------------------------------|
---------------------------------0---------3----|
--2----------3-------5------6----L----L----5----|
--2----------3-------5--------------------------|
--0----0--0--4-------6------4----L----L---------|


  Q    Q    Q    Q    Q    Q    Q    Q.     Q.      
-------0----L----L-------------------4-------------|
------------0----L--------------6----L------9------|
-----------------3---------7----L----L-------------|
--2-------------------5----L----L----L------6------|
--2------------------------------------------------|
--0------------------------------------------------|


       PM PM                                     
  Q    E  E  Q    E  Q.     Q    Q    Q    Q     
--------------------------------------0---------|
------------------------------------------------|
---------------------------------0---------3----|
--2----------3-------5------6----L----L----5----|
--2----------3-------5--------------------------|
--0----0--0--4-------6------4----L----L---------|


  Q    Q    Q    Q    Q    Q    Q    Q.     Q.      
-------0----L----L-------------------4-------------|
------------0----L--------------6----L------9------|
-----------------3---------7----L----L-------------|
--2-------------------5----L----L----L------6------|
--2------------------------------------------------|
--0------------------------------------------------|


        PM PM PM PM PM PM PM PM PM         PM PM PM       PM PM PM  
        |--3--|  |--3--|  |--3--|          |--3--|        |--3--|   
   Q    E  E  E  E  E  E  E  E  E     Q    E  E  E   Q    E  E  E   
-----------------------------------|-------------------------------|
-----------------------------------|-------------------------------|
-----------------------------------|-------------------------------|
-----------------------------------|-------------------------------|
--10-------------------------------|--9-------------10-------------|
--------7--7--7--7--7--7--7--7--7--|-------7--7--7--------7--7--7--|


       PM PM PM PM PM PM PM PM PM    PM PM PM PM PM PM PM PM PM PM PM PM  
       |--3--|  |--3--|  |--3--|     |--3--|  |--3--|  |--3--|  |--3--|   
  Q    E  E  E  E  E  E  E  E  E     E  E  E  E  E  E  E  E  E  E  E  E   
----------------------------------|--------------------------------------|
----------------------------------|--------------------------------------|
----------------------------------|--------------------------------------|
----------------------------------|--------------------------------------|
--9-------------------------------|--8--8--8--9--9--9--8--8--8-----------|
-------6--6--6--6--6--6--6--6--6--|-----------------------------9--9--9--|


       PM PM PM PM PM PM PM PM PM         PM PM PM      PM PM PM  
       |--3--|  |--3--|  |--3--|          |--3--|       |--3--|   
  Q    E  E  E  E  E  E  E  E  E     Q    E  E  E  Q    E  E  E   
----------------------------------|------------------------------|
----------------------------------|------------------------------|
----------------------------------|------------------------------|
----------------------------------|------------------------------|
--6-------------------------------|--5-------------6-------------|
-------3--3--3--3--3--3--3--3--3--|-------3--3--3-------3--3--3--|


       PM PM PM PM PM PM PM PM PM    PM PM PM PM PM PM PM PM PM PM PM PM  
       |--3--|  |--3--|  |--3--|     |--3--|  |--3--|  |--3--|  |--3--|   
  Q    E  E  E  E  E  E  E  E  E     E  E  E  E  E  E  E  E  E  E  E  E   
----------------------------------|--------------------------------------|
----------------------------------|--------------------------------------|
----------------------------------|--------------------------------------|
----------------------------------|--------------------------------------|
--5-------------------------------|--------------------------------------|
-------2--2--2--2--2--2--2--2--2--|--0--0--0--2--2--2--3--3--3--5--5--5--|


        PM PM PM PM PM PM PM PM PM         PM PM PM       PM PM PM  
        |--3--|  |--3--|  |--3--|          |--3--|        |--3--|   
   Q    E  E  E  E  E  E  E  E  E     Q    E  E  E   Q    E  E  E   
-----------------------------------|-------------------------------|
-----------------------------------|-------------------------------|
-----------------------------------|-------------------------------|
--10-------------------------------|--9-------------10-------------|
--------7--7--7--7--7--7--7--7--7--|-------7--7--7--------7--7--7--|
-----------------------------------|-------------------------------|


       PM PM PM PM PM PM PM PM PM    PM PM PM PM PM PM PM PM PM PM PM PM  
       |--3--|  |--3--|  |--3--|     |--3--|  |--3--|  |--3--|  |--3--|   
  Q    E  E  E  E  E  E  E  E  E     E  E  E  E  E  E  E  E  E  E  E  E   
----------------------------------|--------------------------------------|
----------------------------------|--------------------------------------|
----------------------------------|--------------------------------------|
--9-------------------------------|--8--8--8--9--9--9--8--8--8-----------|
-------6--6--6--6--6--6--6--6--6--|-----------------------------9--9--9--|
----------------------------------|--------------------------------------|


       PM PM PM PM PM PM PM PM PM         PM PM PM      PM PM PM  
       |--3--|  |--3--|  |--3--|          |--3--|       |--3--|   
  Q    E  E  E  E  E  E  E  E  E     Q    E  E  E  Q    E  E  E   
----------------------------------|------------------------------|
----------------------------------|------------------------------|
----------------------------------|------------------------------|
--6-------------------------------|--5-------------6-------------|
-------3--3--3--3--3--3--3--3--3--|-------3--3--3-------3--3--3--|
----------------------------------|------------------------------|


       PM PM PM PM PM PM PM PM PM                                         
       |--3--|  |--3--|  |--3--|     |--3--|  |--3--|  |--3--|  |--3--|   
  Q    E  E  E  E  E  E  E  E  E     E  E  E  E  E  E  E  E  E  E  E  E   
----------------------------------|--------------------------------------|
----------------------------------|--------------------------------------|
----------------------------------|--------------------------------------|
--5-------------------------------|--------------------------------------|
-------2--2--2--2--2--2--2--2--2--|--0--0--0--2--2--2--3--3--3--5--5--5--|
----------------------------------|--------------------------------------|


     PM    PM    PM    PM       PM PM    PM PM    PM  
  E  E  E  E  E  E  E  E     E  E  E  E  E  E  E  E   
--------------------------|--------------------------|
--------------------------|--------------------------|
--9-----9-----9-----9-----|--8--------8--------8-----|
--------------------------|--------------------------|
-----7-----7-----7-----7--|-----6--6-----6--6-----6--|
--------------------------|--------------------------|


     PM    PM    PM    PM       PM PM    PM PM             
                                               |---3---|   
  E  E  E  E  E  E  E  E     E  E  E  E  E  E  E   E   E   
--------------------------|-------------------------------|
--------------------------|-------------------------------|
--5-----5-----5-----5-----|--4----------------------------|
--------------------------|-----------5--------4h--5h--7--|
-----3-----3-----3-----3--|-----2--2-----2--2-------------|
--------------------------|-------------------------------|


     PM    PM    PM    PM       PM PM    PM PM    PM  
  E  E  E  E  E  E  E  E     E  E  E  E  E  E  E  E   
--------------------------|--------------------------|
--------------------------|--------------------------|
--9-----9-----9-----9-----|--8--------8--------8-----|
--------------------------|--------------------------|
-----7-----7-----7-----7--|-----6--6-----6--6-----6--|
--------------------------|--------------------------|


     PM    PM    PM    PM       PM PM    PM PM         
  E  E  E  E  E  E  E  E     E  E  E  E  E  E  E   E   
--------------------------|---------------------------|
--------------------------|---------------------------|
--5-----5-----5-----5-----|--4------------------------|
--------------------------|-----------5--------5p--4--|
-----3-----3-----3-----3--|-----2--2-----2--2---------|
--------------------------|---------------------------|


  PM PM PM PM PM PM PM PM PM PM PM PM    PM PM PM PM PM PM PM PM PM PM PM PM  
  |--3--|  |--3--|  |--3--|  |--3--|     |--3--|  |--3--|  |--3--|  |--3--|   
  E  E  E  E  E  E  E  E  E  E  E  E     E  E  E  E  E  E  E  E  E  E  E  E   
--------------------------------------|--------------------------------------|
--------------------------------------|--------------------------------------|
--------------------------------------|--------------------------------------|
--------------------------------------|--------------------------------------|
--7--7--7--7--7--7--7--7--7--7--7--7--|--9--9--9--9--9--9--9--9--9--9--9--9--|
--------------------------------------|--------------------------------------|


   PM  PM  PM  PM  PM  PM  PM  PM  PM  PM  PM  PM  
   |---3---|   |---3---|   |---3---|   |---3---|   
   E   E   E   E   E   E   E   E   E   E   E   E   
--------------------------------------------------|
--------------------------------------------------|
--------------------------------------------------|
--------------------------------------------------|
--10--10--10--10--10--10--10--10--10--10--10--10--|
--------------------------------------------------|


   PM  PM  PM  PM  PM  PM PM PM PM PM PM PM             PM PM PM PM PM PM  
   |---3---|   |---3---|  |--3--|  |--3--|              |--3--|  |--3--|   
   E   E   E   E   E   E  E  E  E  E  E  E     H        E  E  E  E  E  E   
--------------------------------------------|-----------------------------|
--------------------------------------------|-----------------------------|
--------------------------------------------|--5--------------------------|
--------------------------------------------|-----------4--4--4--4--4--4--|
--10--10--10--10--10--10--9--9--9--7--7--7--|--6--------------------------|
--------------------------------------------|-----------------------------|


           PM PM PM PM PM PM             PM PM PM PM PM PM  
           |--3--|  |--3--|              |--3--|  |--3--|   
  H        E  E  E  E  E  E     H        E  E  E  E  E  E   
-----------------------------|-----------------------------|
-----------------------------|-----------------------------|
--4--------------------------|--2--------------------------|
-----------------------------|--2--------------------------|
--2--------3--3--3--3--3--3--|--0--------0--0--0--0--0--0--|
-----------------------------|-----------------------------|


                                PM PM  PM PM PM       PM PM  PM PM PM  
  |--3--|                                                              
  E  E  E  Q    Q    Q       E  E  E   E  E  E     E  E  E   E  E  E   
--------------------------|---------------------|---------------------|
--------------------------|---------------------|---------------------|
--------------------------|--9------------------|--9------------------|
--5--L--L--1----4----7----|---------------------|---------------------|
--5--L--L--3----6----9----|-----7--7--10--9--7--|-----7--7--10--9--7--|
--3--L--L-----------------|---------------------|---------------------|


     PM PM PM PM PM       PM PM PM PM PM       PM PM  PM PM PM  
  E  E  E  E  E  E     E  E  E  E  E  E     E  E  E   E  E  E   
--------------------|--------------------|---------------------|
--------------------|--------------------|---------------------|
--8-----------------|--8-----------------|--9------------------|
--------------------|--------------------|---------------------|
-----6--6--9--8--6--|-----6--6--6--8--9--|-----7--7--10--9--7--|
--------------------|--------------------|---------------------|


     PM PM  PM PM PM       PM PM PM PM PM       PM PM    PM PM  
  E  E  E   E  E  E     E  E  E  E  E  E     E  E  E  E  E  E   
---------------------|--------------------|--------------------|
---------------------|--------------------|--------------------|
--9------------------|--8-----------------|--8--------8--------|
---------------------|--------------------|-----7--------7-----|
-----7--7--10--9--7--|-----6--6--9--8--6--|--------6--------6--|
---------------------|--------------------|--------------------|


     PM PM PM PM PM       PM PM PM PM PM       PM PM PM PM PM  
  E  E  E  E  E  E     E  E  E  E  E  E     E  E  E  E  E  E   
--------------------|--------------------|--------------------|
--------------------|--------------------|--------------------|
--5-----------------|--5-----------------|--4-----------------|
--------------------|--------------------|--------------------|
-----3--3--6--5--3--|-----3--3--6--5--3--|-----2--2--5--4--2--|
--------------------|--------------------|--------------------|


     PM PM PM PM PM       PM PM PM PM PM       PM PM PM PM PM  
  E  E  E  E  E  E     E  E  E  E  E  E     E  E  E  E  E  E   
--------------------|--------------------|--------------------|
--------------------|--------------------|--------------------|
--4-----------------|--5-----------------|--5-----------------|
--------------------|--------------------|--------------------|
-----2--2--2--4--5--|-----3--3--6--5--3--|-----3--3--6--5--3--|
--------------------|--------------------|--------------------|


                        PM  PM  PM         PM  PM  PM  PM  PM  
  E  H        H         E   E   E      E   E   E   E   E   E   
-----------------------------------|--------------------------|
-----------------------------------|--------------------------|
--4--------------------------------|--16----------------------|
-----------------------------------|--------------------------|
-----------------------14--16--17--|------14--14--17--16--14--|
-----------------------------------|--------------------------|


       PM  PM  PM  PM  PM         PM  PM  PM  PM  PM  
   E   E   E   E   E   E      E   E   E   E   E   E   
--------------------------|--------------------------|
--------------------------|--------------------------|
--16----------------------|--15----------------------|
--------------------------|--------------------------|
------14--14--17--16--14--|------13--13--16--15--13--|
--------------------------|--------------------------|


       PM  PM  PM  PM  PM         PM  PM  PM  PM  PM  
   E   E   E   E   E   E      E   E   E   E   E   E   
--------------------------|--------------------------|
--------------------------|--------------------------|
--15----------------------|--16----------------------|
--------------------------|--------------------------|
------13--13--13--15--16--|------14--14--17--16--14--|
--------------------------|--------------------------|


       PM  PM  PM  PM  PM         PM  PM  PM  PM  PM  
   E   E   E   E   E   E      E   E   E   E   E   E   
--------------------------|--------------------------|
--------------------------|--------------------------|
--16----------------------|--15----------------------|
--------------------------|--------------------------|
------14--14--17--16--14--|------13--13--16--15--13--|
--------------------------|--------------------------|


                                PM PM PM PM PM       PM PM PM PM PM  
   E   E   E   E   E   E     E  E  E  E  E  E     E  E  E  E  E  E   
--------------------------|--------------------|--------------------|
--------------------------|--------------------|--------------------|
--15----------15----------|--8-----------------|--8-----------------|
------14----------14------|--------------------|--------------------|
----------13----------13--|-----6--6--9--8--6--|-----6--6--9--8--6--|
--------------------------|--------------------|--------------------|


     PM PM PM PM PM       PM PM PM PM PM       PM PM PM PM PM  
  E  E  E  E  E  E     E  E  E  E  E  E     E  E  E  E  E  E   
--------------------|--------------------|--------------------|
--------------------|--------------------|--------------------|
--7-----------------|--7-----------------|--8-----------------|
--------------------|--------------------|--------------------|
-----5--5--8--7--5--|-----5--5--5--7--8--|-----6--6--9--8--6--|
--------------------|--------------------|--------------------|


     PM PM PM PM PM                                  PM    PM    PM    PM  
  E  E  E  E  E  E     Q    H         H           E  E  E  E  E  E  E  E   
--------------------|--------------------------|--------------------------|
--------------------|--------------------------|--------------------------|
--8-----------------|--8-------------11--------|--9-----9-----9-----9-----|
--------------------|--7-----------------------|--------------------------|
-----6--6--9--8--6--|--6--------------9--------|-----7-----7-----7-----7--|
--------------------|--------------------------|--------------------------|


     PM PM    PM PM    PM       PM    PM    PM    PM  
  E  E  E  E  E  E  E  E     E  E  E  E  E  E  E  E   
--------------------------|--------------------------|
--------------------------|--------------------------|
--8--------8--------8-----|--5-----5-----5-----5-----|
--------------------------|--------------------------|
-----6--6-----6--6-----6--|-----3-----3-----3-----3--|
--------------------------|--------------------------|


     PM PM    PM PM                  PM    PM    PM    PM  
                    |---3---|                              
  E  E  E  E  E  E  E   E   E     E  E  E  E  E  E  E  E   
-------------------------------|--------------------------|
-------------------------------|--------------------------|
--4----------------------------|--9-----9-----9-----9-----|
-----------5--------4h--5h--7--|--------------------------|
-----2--2-----2--2-------------|-----7-----7-----7-----7--|
-------------------------------|--------------------------|


     PM PM    PM PM    PM       PM    PM    PM    PM  
  E  E  E  E  E  E  E  E     E  E  E  E  E  E  E  E   
--------------------------|--------------------------|
--------------------------|--------------------------|
--8--------8--------8-----|--5-----5-----5-----5-----|
--------------------------|--------------------------|
-----6--6-----6--6-----6--|-----3-----3-----3-----3--|
--------------------------|--------------------------|


     PM PM    PM PM           PM PM PM PM PM PM PM PM PM PM PM PM  
                              |--3--|  |--3--|  |--3--|  |--3--|   
  E  E  E  E  E  E  E   E     E  E  E  E  E  E  E  E  E  E  E  E   
---------------------------|--------------------------------------|
---------------------------|--------------------------------------|
--4------------------------|--------------------------------------|
-----------5--------5p--4--|--------------------------------------|
-----2--2-----2--2---------|--7--7--7--7--7--7--7--7--7--7--7--7--|
---------------------------|--------------------------------------|


  PM PM PM PM PM PM PM PM PM PM PM PM  
  |--3--|  |--3--|  |--3--|  |--3--|   
  E  E  E  E  E  E  E  E  E  E  E  E   
--------------------------------------|
--------------------------------------|
--------------------------------------|
--------------------------------------|
--9--9--9--9--9--9--9--9--9--9--9--9--|
--------------------------------------|


   PM  PM  PM  PM  PM  PM  PM  PM  PM  PM  PM  PM  
   |---3---|   |---3---|   |---3---|   |---3---|   
   E   E   E   E   E   E   E   E   E   E   E   E   
--------------------------------------------------|
--------------------------------------------------|
--------------------------------------------------|
--------------------------------------------------|
--10--10--10--10--10--10--10--10--10--10--10--10--|
--------------------------------------------------|


   PM  PM  PM  PM  PM  PM PM PM PM PM PM PM             PM PM PM PM PM PM  
   |---3---|   |---3---|  |--3--|  |--3--|              |--3--|  |--3--|   
   E   E   E   E   E   E  E  E  E  E  E  E     H        E  E  E  E  E  E   
--------------------------------------------|-----------------------------|
--------------------------------------------|-----------------------------|
--------------------------------------------|--5--------------------------|
--------------------------------------------|-----------4--4--4--4--4--4--|
--10--10--10--10--10--10--9--9--9--7--7--7--|--6--------------------------|
--------------------------------------------|-----------------------------|


           PM PM PM PM PM PM             PM PM PM PM PM PM  
           |--3--|  |--3--|              |--3--|  |--3--|   
  H        E  E  E  E  E  E     H        E  E  E  E  E  E   
-----------------------------|-----------------------------|
-----------------------------|-----------------------------|
--4--------------------------|--2--------------------------|
-----------------------------|--2--------------------------|
--2--------3--3--3--3--3--3--|--0--------0--0--0--0--0--0--|
-----------------------------|-----------------------------|


                             PM   PM   PM   PM                          
  |--3--|                                                               
  E  E  E  Q    Q    Q       Q    Q    Q    Q       Q    H.             
--------------------------|----------------------|--------------------||
--------------------------|----------------------|--------------------||
--------------------------|----------------------|--------------------||
--5--L--L--1----4----7----|----------------------|--------------------||
--5--L--L--3----6----9----|--2----2----2----2----|--2-----------------||
--3--L--L-----------------|--0----0----0----0----|--0-----------------||




Duration Legend
---------------
W - whole
H - half
Q - quarter
E - 8th
S - 16th
T - 32nd
X - 64th
. - note dotted
|-n-|  - n-tuplets


Tablature Legend
----------------
L - tied note
x - dead note
g - grace note
(n) - ghost note
> - accentuded note
NH - natural harmonic
AH - artificial harmonic
TH - tapped harmonic
SH - semi harmonic
PH - pitch harmonic
h - hammer on
p - pull off
b - bend
br - bendRelease
pb - preBend
pbr - preBendRelease
brb - bendReleaseBend
\n/ - tremolo bar dip
\n - tremolo bar dive
-/n - tremolo bar Release up
/n\ - tremolo bar inverted dip
/n - tremolo bar return
-\n - tremolo bar Release down
S - shift slide
s - legato slide
/ -  slide into from below or out of upwards
\ -  slide into from above or out of downwards
~ - vibrato
W - wide vibrato
tr - trill
TP - tremolo picking
T - tapping
S - slap
P - pop
< - fade in
^ - brush up
v - brush down
Tap to rate this tab
# A B C D E F G H I J K L M N O P Q R S T U V W X Y Z