Song name
# A B C D E F G H I J K L M N O P Q R S T U V W X Y Z

Obscurity - Nach Asgard Wir Reiten tab

Whole song coming soon...hopefully...

e|-----------------------------------------|
B|-----------------------------------------|
G|-----------------------------------------|
D|------------------------7----------------|
A|-7--9--10--7--9--10--7-----109-7--9--7---|
E|--00-00--0--00-00--0--00-00-----00-00-0--|

e|----------------------------------------------|
B|----------------------------------------------|
G|----------------------------------------------|
D|----------------------------------------------|
A|-7--9--10--10--12--14--14--12--10--9--10--9---|
E|--00-00--0---00--00--0---00--00--00-00--00-0--|

You later play the above riff without the open E notes. You tremolo pick the remaining notes.

http://www.myspace.com/obscuritybergischland
Tap to rate this tab
# A B C D E F G H I J K L M N O P Q R S T U V W X Y Z