Guitaretab - guitar tabs
Song name
# A B C D E F G H I J K L M N O P Q R S T U V W X Y Z

Oc Supertones - Unite tab

No Guitar on Intro pt1

Intro pt2  (dist.)
G---3-------3---6---3-------3---10--3-------3---6---3-------3----
D---3---6---3---6---3---6---3---10--3---6---3---6---3---6---3---3
A---1---6---1---4---1---6---1---8---1---6---1---4---1---6---1---3
E-------4---------------4---------------4---------------4-------1

[ Tab from: http://www.guitaretab.com/o/oc-supertones/120354.html ]
Verse  (clean)
G-----------------------------------
D---8---6---8---6---8---6---8---6---
A---8---6---8---6---8---6---8---6---
E---6---4---6---4---6---4---6---4---


Chorus  (dist.)
G---3---8--------10--
D---3---8---10---10--
A---1---6---10---8---
E-----------8--------


Solo
A--1-1-1-1---1-----6---1-1-1---1-4-4-4-4-3----
E----------1---4-4---4-------1-------------4


SONG ORDER
Intro pt1  (NO GUITAR)
Intro pt2  
Verse      (X2)    
Chorus     (X4)          
Intro pt2       
Verse      (X2)         
Chorus     (X4)           
Solo       (X6)          

I'm pretty sure this is 100%, but feel free to differ!


Related for Unite tab