Song name
# A B C D E F G H I J K L M N O P Q R S T U V W X Y Z

Ocean Colour Scene - The Riverboat Song tab

-------------------------------------------------------------------------------
			     The Riverboat Song - Ocean Colour Scene
-------------------------------------------------------------------------------

Tabbed By : John McNally
e-mail: jm12u@hotmail.com

Tuning:Standard

This is in the right key as original and is pretty accurate 

Intro

G|--------------------------|     |------7--9--7---9-------|
D|-------0--1----0--2-------|     |--9-------9-------------|
A|---2--------2-------------| X8  |------------------------| x4
E|--------------------------|     |------------------------|

G|-------0--1----0--2-------|     |------------------------|
D|---2-------2--------------|     |-------0--1----0--2-----| X2
A|--------------------------| X2  |---2--------2-----------| 
E|--------------------------|     |------------------------|

G|-------2--4----2---4------|     |------------------------|
D|--4--------4--------------|     |------0--1---0--2-------|
A|--------------------------| X2  |--2-------2-------------| X2  
E|--------------------------|     |------------------------|


Verse 1 + 2 + 3

G|--------------------------|     |------0--1--0---2-----|
D|-------0--1----0--2-------|     |--2-------2-----------|
A|---2--------2-------------| X4  |----------------------| x2
E|--------------------------|     |----------------------|

G|--------------------------|     |------0--1--0---2-----|
D|-------0--1----0--2-------|     |--2-------2-----------|
A|---2--------2-------------| X2  |----------------------| x2
E|--------------------------|     |----------------------|

G|--------------------------|     |-----------------------------------|
D|-------0--1----0--2-------|     |-----------------------------------|
A|---2--------2-------------| X2  |----------0-0-0--------0---0---2---| 
E|--------------------------|     |--2-2-3-3---------0--2---2---------|

Bridge

G|--------------------------------------------------------------|
D|------------------0-0-0-0-0-0----2-2-2-2-2-2------------------|
A|---2-2-2-2-2-2---------------------------------0-0-0-0-0-0----| X1
E|--------------------------------------------------------------|

G|----------------------------------------------2-0-------------|
D|------------------0-0-0--0-0-0----2-2-2--2-2-2------4--2-0----|
A|---2-2-2--2-2-2-------------------------------------------4---| X2
E|--------------------------------------------------------------|

G|--------------------------------------------------------------|
D|--------------------------------------------------------------|
A|--2-2-2--2-2-2--0-0-0--0-0-0-----------------------0---0---2--|
E|------------------------------4-4-4--4-4-4----0--2---2--------|

Give a listen and you will get the idea of the structure etc.

| /  slide up
| \  slide down
| h  hammer-on
| p  pull-off
| ~  vibrato
| +  harmonic
| x  Mute note
===============================================================================
Tap to rate this tab
# A B C D E F G H I J K L M N O P Q R S T U V W X Y Z