Song name
# A B C D E F G H I J K L M N O P Q R S T U V W X Y Z

Ocean Colour Scene - The Day We Caught The Train tab

----------------------------------------------------------------------##

                           THE DAY WE CAUGHT THE TRAIN
                        As recorded by Ocean Colour Scene
                      (From the 1997 Album MOSELEY SHOALS)

Words and Music by Simon Fowler, Steve Cradock, Oscar Harrison and Damon Minchella

          Em                    D                    G                    F
      0 2 2 0 0 0          x x 0 2 3 2          3 2 0 0 3 3          1 3 3 2 1 1

           E                    C                    B                    A
      0 2 2 1 0 0          x 3 2 0 1 0          x 2 4 4 4 x          x 0 2 2 2 0

        Bbdim7                 Bm                  A/C#                 C#dim
      x 1 2 0 2 0          x 2 4 4 3 2          x 4 2 2 2 x          x 4 x 0 2 0

          Em7                 A7/C#
      0 2 2 0 3 0          x 4 2 0 2 x

Gtr I (E A D G B E) - 'Untitled'
Gtr II (E A D G B E) - 'Untitled'
Gtr III (E A D G B E) - 'acoustic'

   Verse
    Q=88
    Em         D                  G
   4/4
    Gtr I
    W          W                  W
    |          |                  |
    /          /                  /

    Gtr III
    W          Q  E. S S S E Q    Q  Q  +E  E S S E
||-----------|-2--2--2-2-2-2-0--|----3--(3)---------|
||o----------|-3--3--3-3-3-3-3--|----3--(3)---------|
||-----------|-2--2--2-2-2-2-0--|----0--(0)---------|
||-----------|-2--2--2-2-2-2-0--|----0--(0)-------0-|
||o----------|------------------|-----------0-0h2---|
||--0--------|------------------|-3-----------------|


  F           E                    G          D    C      B
  Gtr II
   W          W                    W          H    H      H.      Q
|-----------|--------------------|----------|-----------|------------|
|-10--------|-9------------------|-8--------|-7----5----|-4-------4--|
|-----------|--------------------|----------|-----------|------------|
|-----------|--------------------|----------|-----------|------------|
|-----------|--------------------|----------|-----------|------------|
|-----------|--------------------|----------|-----------|------------|
|
|             Gtr III
|  W          H    S S S S Q       W          W           W
|-----------|--------------------|----------|-----------|------------|
|-----------|--------------------|----------|-----------|------------|
|-----------|--------------0tr1--|----------|-----------|------------|
|-----------|----------0h2-------|----------|-----------|------------|
|-----------|------0h2-----------|----------|-----------|------------|
|-----------|--------------------|----------|-----------|------------|


  Em              A                 Em               A
  Gtr I
  W               W                 W                W
  |               |                 |                |
  /               /                 /                /

  Q  Q   Q  Q     Q  a Q  Q  a Q    E E Q   Q  Q     Q  a Q  Q  E E
|----7\-----7\--|------5-------5--|-x---7\-----7\--|------5-----5---||
|----8\-----8\--|------5-------5--|-x---8\-----8\--|------5-----5---||
|----9\-----9\--|----5h6-----5h6--|-x---9\-----9\--|----5h6-----6---||
|----9\-----9\--|------7-------7--|-x---9\-----9\--|------7-----7---||
|---------------|-----------------|----------------|----------------||
|---------------|-----------------|----------------|----------------||


 Pre-Chorus
  D        Bbdim7      Bm      A/C#      Em                  G
  Q  E S S Q   E S S   E E E E E Q   E   Q  E S S Q  E S S   Q  E S S Q  E S S
  |  | | | |   | | |   | | | | | |   |   |  | | | |  | | |   |  | | | |  | | |
  /  / / / /   / / /   / / / / / /   /   /  / / / /  / / /   /  / / / /  / / /

  H        E E E E     Q   Q   Q   Q     Q  H        Q       Q  Q     Q  Q
|-2------------------|-----------------|-------------------|-------------------|
|-3------------------|-----0-----------|-------------------|-3--3-----3--3-----|
|-2------------3-----|-----------------|-------------------|-0--0-----0--0-----|
|-0----------2-------|-----------------|-------------------|-0--0-----0--0-----|
|----------1-----1---|-2-------4---4---|----7--------7-----|-------------------|
|--------------------|-----------------|-------------------|-3--3-----3--3-----|


                      A          A7/C#
  Q  E S S Q  E S S   Q  Q       Q       Q
  |  | | | |  | | |   |  |       |       |
  /  / / / /  / / /   /  /       /       /

  Q  Q     Q  Q       Q  S S S S S S S S Q
|-------------------|-----------------------||
|-3--3-----3--3-----|-2--2h3p2h3p2h3p2h3p2--||
|-0--0-----0--0-----|-2---------------------||
|-0--0-----0--0-----|-2---------------------||
|-------------------|-0---------------------||
|-3--3-----3--3-----|-----------------------||


 Chorus
  D        A          G       Em7         D        A            G
                                                               2/4
  Q  E S S Q  E S S   E E E E E Q     E   Q  E S S Q   E  S S   E E E E
  |  | | | |  | | |   | | | | | |     |   |  | | | |   |  | |   | | | |
  /  / / / /  / / /   / / / / / /     /   /  / / / /   /  / /   / / / /

  Q  Q     Q  Q       Q   Q   E E S S E   Q  Q     E E E.   S   Q   Q
|-2--2--------------|-----3-----0-------|-2--2----------------|-3---3----|
|-3--3-----2--2-----|-----3-----3-------|-3--3-------2-2----x-|-3---3----|
|-2--2-----2--2-----|-0---0-----0-------|-2--2-------2-2----x-|-0---0----|
|-0--0-----2--2-----|-0---0-----2-----0-|-0--0-----x-2-2----x-|-0---0----|
|----------0--0-----|---------x---0h2---|----------x-0-0----x-|----------|
|-------------------|-3---3---x---------|---------------------|-3---3----|


  Em7                     A                                   D
 4/4
  H       H               W                 W                 W
  |
  /

  E Q.   +Q   S S S S     E E E E E E E E   E E E E E E E E   Q  E E H
|----------------------||-----------------|-----------------|-2--2-2-2----|
|-3-3----(3)----------o||-----------------|-----------------|-3--3-3-3----|
|-0-0----(0)-----------||-----------------|-----------------|-2--2-2-2----|
|-2-2----(2)------0h2--||-7-7-5-5-4-4-2-2-|-----------------|-0--0-0-0----|
|-2-2----(2)--0h2-----o||-----------------|-0-0-2-2-4-4-5-7-|-------------|
|-0-0----(0)-----------||-----------------|-----------------|-------------|


  A                                      D        A
  H    H      S S S S S S S S H          Q  E S S S S E S S S S
|-----------|-------------------------||-2--2-2-2---------------|
|-3----2----|-2h3p2h3p2h3p2h3-2tr3----||-3--3-3-3---------------|
|-----------|-------------------------||-2--2-2-2-2p0-2---------|
|-----------|-------------------------||-0--0-0-0-2-0-2---------|
|-----------|-------------------------||----------0---0-x-x-2-2-|
|-----------|-------------------------||----------------x-x-0-0-|


  G      Em7         D     A           G      Em7         D          A
                                                          Gtr III
  W                  W                 W                  Q  S S S S Q   E E
                                                          |  | | | | |   | |
                                                          /  / / / / /   / /

  Q  E E E E E  E    Q  Q  E E S E S   Q  E E E E E  E    H          E E Q
|-3----------------|-2--2------------|------------------|--------------------|
|-3----------------|-3--3------------|------------------|--------------------|
|-0----------------|-2--2------------|------------------|--------------------|
|-0--5-4-2---------|-0--0--------2---|----5-4-2---------|--------------------|
|----------2-------|-------0-0-0---0-|----------2-------|-5----------4-5-4---|
|-3----------0-12\-|-----------------|-3----------0-12\-|--------------------|


  G       Em7         D        A          G       Em7
  E E E E E Q    E    Q  E S S Q  E S S   E E E E E Q     E
  | | | | | |    |    |  | | | |  | | |   | | | | | |     |
  / / / / / /    /    /  / / / /  / / /   / / / / / /     /

  Q   E E E E E  E    Q  E S S Q  Q       Q   E E E E S E   S
|-------------------|-2--2-x-x----------|-----------0-0-0---0-|
|-------------------|-3--3-x-x-2--2-----|-----------3-3-3---3-|
|-------------------|-2--2-x-x-2--2-----|-----------0-0-0---0-|
|-----5-4-2---------|-0--0-x-x-2--2-----|-----5-4---2-2-2---2-|
|-----------2-------|----------0--0-----|-5-------x-----------|
|-3-----------0-12\-|-------------------|---------x-----------|


  D         A            G       Em7
  Q  E  S S Q  E S S     E E E E E Q    E
  |  |  | | |  | | |     | | | | | |    |
  /  /  / / /  / / /     / / / / / /    /

  Q  E.   S Q  Q       a Q   E E E E E  E
|-2--2----x----------|---------------------|
|-3--3----x-2--2-----|---------------------|
|-2--2----x-2--2-----|---------------------|
|-0--0----x-2--2-----|-4s5---5-4-2---------|
|-----------0--0-----|-------------2-------|
|--------------------|---------------0-12\-|


  D          A              G       Em7
  Q    E S S Q  E   S S     E E E E E Q    E
  |    | | | |  |   | |     | | | | | |    |
  /    / / / /  /   / /     / / / / / /    /

  E. S E E   Q  S S S S   a Q   E E E E E  E
|-2--2-2----------------|---------------------||
|-3--3-3-3------2h3p2h3-|-------3-2-----------||
|-2--2-2-----2----------|---------------------||
|-0--0-0-----2----------|-2s5-------2---------||
|------------0----------|-------------2-------||
|-----------------------|---------------0-12\-||


   Outro
    D          A             G       Em7
    Q  E   S S Q   E S S     E E E E E Q  E
    |  |   | | |   | | |     | | | | | |  |
    /  /   / / /   / / /     / / / / / /  /

    Q  S S S S E Q   E     a Q   Q   H
||--2--2h3p2h3-----------|------------------|
||o-3----------2-2-------|-------3----------|
||--2----------2---------|------------------|
||--0----------2---------|-4s5--------------|
||o------------0-----0---|------------------|
||-----------------------|-----------0------|


  D           A                 G       Em7
  Q   E   S S Q     E   S S     E E E E E Q    E
  |   |   | | |     |   | |     | | | | | |    |
  /   /   / / /     /   / /     / / / / / /    /

  E E S S S S e S S S S S S   a Q   E E E E E  E
|-2---2h3p2h3---------------|----------------------||
|-3-3-----------2h3p2h3-----|---------------------o||
|-2-------------------------|----------------------||
|-0-----------2---------2-2-|-4s5---5-4-2----------||
|-------------0---------0-0-|-------------2-------o||
|---------------------------|---------------0-12\--||


Duration Legend
---------------
W - whole; H - half; Q - quarter; E - 8th; S - 16th; T - 32nd; X - 64th; a - acciaccatura
+ - note tied to previous; . - note dotted; .. - note double dotted
Uncapitalized letters represent notes that are staccato (1/2 duration)
Irregular groupings are notated above the duration line
Duration letters will always appear directly above the note/fret number it represents the
duration for.  Duration letters with no fret number below them represent rests.  Multi-
bar rests are notated in the form Wxn, where n is the number of bars to rest for.  Low
melody durations appear below the staff

Tablature Legend
----------------
 h   - hammer-on
 p   - pull-off
 b   - bend
 pb  - pre-bend
 r   - bend release (if no number after the r, then release immediately)
 /\  - slide into or out of (from/to "nowhere")
 s   - legato slide
 S   - shift slide
  - natural harmonic
[n]  - artificial harmonic
n(n) - tapped harmonic
 ~   - vibrato
 tr  - trill
 T   - tap
 TP  - trem. picking
 PM  - palm muting
\n/  - tremolo bar dip; n = amount to dip
 \n  - tremolo bar down
 n/  - tremolo bar up
/n\  - tremolo bar inverted dip
 =   - hold bend; also acts as connecting device for hammers/pulls
 <>  - volume swell (louder/softer)
 x   - on rhythm slash represents muted slash
 o   - on rhythm slash represents single note slash

Misc Legend
-----------
 |  - bar
||  - double bar
||o - repeat start
o|| - repeat end
*|  - double bar (ending)
 :  - bar (freetime)
 $  - Segno
 &  - Coda
Tempo markers -  = BPM(8/16=s8/s16), where s8 = swing 8ths, s16 = swing 16ths
Tap to rate this tab
 
# A B C D E F G H I J K L M N O P Q R S T U V W X Y Z