Song name
# A B C D E F G H I J K L M N O P Q R S T U V W X Y Z

Ocean Colour Scene - The Circle tab

think this is right.alomst 100% sure it is.

e--7-------------------------------------------------------|
b----10---10-----------------------------------------------|
g----9(b)-9(b thn r)-7-9-9-7---------7---7-9-7-------------|
d----------------------------9---7/9---9-------------------|
a----------------------------------------------------------|
e----------------------------------------------------------|


e---------10-------10-12-12(b)-12(b)-10-10-10--------------|
b------10----10h12----------------------------12-----------|
g-9/11-----------------------------------------------------|
d----------------------------------------------------------|
a----------------------------------------------------------|
e----------------------------------------------------------|


e------------------------------------7---------------------|
b-12(b)-10-12-12--10-9--8-7--------------------------------|
g-----------------11-10-9-7--------7--7-9-7----------------|
d----------------------------7-7h9-------------------------|
a----------------------------------------------------------|
e----------------------------------------------------------|


e----------------------------------------------------------|
b--------------------8p7-7h8p8-8/10-10---------------------|
g---------------/9-7---------------------------------------|
d-/7-7-5-4---/7--------------------------------------------|
a----------5-----------------------------------------------|
e----------------------------------------------------------|


e-12(b thn r)-10-------------------7-----7-----7-----------|
b----------------12-12-12p10--10(b)-10(b)-10(b)--10(b)-7---|
g----------------------------------------------------------|
d----------------------------------------------------------|
a----------------------------------------------------------|
e----------------------------------------------------------|

e-----------------------------------------------------------|
b----------------7-x-7-x-7----------------------------------|
g-9-7-9--9(b)-7--7-x-7-x-7----------------------------------|
d-------------------------7h9-/7-/5-/4-/2p0-----------------|
a-----------------------------------------------------------|
e-----------------------------------------------------------|


(b)= bend
(r)= release
 /= slide
 p= pull off
(b thn r)= bend then release
Tap to rate this tab
 
# A B C D E F G H I J K L M N O P Q R S T U V W X Y Z