Ocean Colour Scene - I Wanna Stay Alive With You chords

Highlighted       Show chord diagrams
--------------------------------------------------------------------------
               I Wanna Stay Alive With You - Ocean Colour Scene
--------------------------------------------------------------------------
Tabbed by: tom murphy

Tuning:standard

"i wanna stay alive with you" from the album b-sides, seasides and free rides.


Intro:

C  Fmaj  C  Fmaj  Cmaj7  F*  Cmaj7  F*



    C          Fmaj
e|--3--1--0----1--0------|
B|-------------------1---|
G|-----------------------|
D|-------------3---------|  x4
A|--3--------------------|
E|-----------------------|




C               Fmaj
I'm not one to judge that much
C                           Fmaj
And anyway I just wanna get high on you
C               
But thirteen year old girls
   Fmaj
In hotels on the other side of the world
C                     Fmaj
Seems a little much for me


F                       Dsus2/F#
I wanna stay alive with you
                         F
I wanna stay alive with you
                        Dsus2/F#
I wanna stay alive with you
                         C
I wanna stay alive with you


Did they look you in the eye
And anyway they'll always slip a smile at you
But thirteen year old girls
In rat-holes on the other side of the world
Won't lie to you

I wanna stay alive with you
I wanna stay alive with you
I wanna stay alive with you
I wanna stay alive with you

Cmaj7
Free rides in the town
           F*                                       C
Where the boys and girls are settling down for the night
                             Fmaj
To look up with big eyes at you

I wanna stay alive with you
I wanna stay alive with you
I wanna stay alive with you
I wanna stay alive with you (x2)


Finish on intro chords


************************************


     F*   Dsus2/F#     Cmaj7    Fmaj
e|---0--------0----------0--------0-----|
B|---0--------3----------0--------1-----|
G|---2--------2----------0--------2-----|
D|---3--------0----------2--------3-----|
A|---3--------0----------3--------------|
E|---1--------2----------3--------------|


************************************

| /   slide up
| \   slide down
| h   hammer-on
| p   pull-off
| ~   vibrato
| +   harmonic
| x   Mute note
| b   Bend
| pb  Pre-bend
| br  Bend release
| pbr Pre-bend release
| brb Bend release bend

************************************
Tap to rate this tab
 
# A B C D E F G H I J K L M N O P Q R S T U V W X Y Z