Song name
# A B C D E F G H I J K L M N O P Q R S T U V W X Y Z

Ocean Colour Scene - Travellers Tune tab

Travellers Tune


This song seems to be recorded slightly sharp on the original recording.
If the song was in standard tuning it would be played like this:

There are some ectra bits near the end which can be improvised in the pentatoonic 
scale in G. (3rd fret position on low E).

Verse:

  G  F  C
|------------|
|------------|
|-------5----|
|-5--3--5----|
|-5--3--3----|
|-3--1-------|


Chorus:


  F  C  G
|-------------|
|-------------|
|-----5-------|
|--3--5--5----|
|--3--3--5----|
|--1-----3----|



Solo

|-------------------------------------------------------|
|----------13h15---13-12--13-12-10-12-------------------|
|-----12------------------------------12----------------|
|----------------------------------------10--10--10-12--|
|-------------------------------------------------------|
|-------------------------------------------------------|



|----------------------------------------|
|------------------12-13-15-13-12-10-----|
|------12-12-12-14-------------------12--|
|--/14-----------------------------------|
|----------------------------------------|
|----------------------------------------|

pt2

|---------------------------------|
|---------------------------------|
|-------------------------9-------|
|--/9-10-/12-10-9-7-9-10-----10---|
|---------------------------------|
|---------------------------------|


|-------------------15-15---------|
|-10s12--12s3---s15---------------|
|---------------------------------|
|---------------------------------|
|---------------------------------|
|---------------------------------|
Tap to rate this tab
 
# A B C D E F G H I J K L M N O P Q R S T U V W X Y Z