Song name
# A B C D E F G H I J K L M N O P Q R S T U V W X Y Z

Ocean - Back Then tab

Ocean - Back Then




x4
C---G---A---F

Verse.
x4
G--A--G--A--G--A--G-F-

Bridge.x4
G-G-7-G-C-D7-G-

The end4x
--------------------------------------|
--1-0-1--1-0-1---1-0-1-3-0-3-1-3-0----|
-2------0-----------------------------|
---------------2----------------------|
--------------------------------------|
--------------------------------------|

4x
--------------------|
--5-7-8--8-7-3------|
----------------8---|
--------------------|
--------------------|
--------------------|
Tap to rate this tab
# A B C D E F G H I J K L M N O P Q R S T U V W X Y Z