Song name
# A B C D E F G H I J K L M N O P Q R S T U V W X Y Z

Oceana - We Are The Messengers tab

d#|---------------------------------------------------17~---|
A#|-----------------------------------17----13-17-15--------|
F#|------5-7-10-9-5-12-10-9-10-7---14-----------------------|
C#|--5-5----------------------------------------------------|
G#|---------------------------------------------------------|
C#|---------------------------------------------------------|

d#|---12-13-12-------------------------|
A#|------------13-10-------------------|
F#|------------------12----------------|
C#|---------------------12-------------|
G#|------------------------------------|
C#|------------------------------------|x2
Tap to rate this tab
# A B C D E F G H I J K L M N O P Q R S T U V W X Y Z