Song name
# A B C D E F G H I J K L M N O P Q R S T U V W X Y Z

Oceana - The Accountable tab

Help us improve GuitareTab! Take a short survey!
Tabbed by: Trey Hopkins
Email: Comment or Email me and tell me how i did, i know alot of ppl want this tab.

Tuning: figure it out.

intro play 6 times.

e|--------------------------------------------------------------------------|
B|--------------------------------------------------------------------------|
G|--------------------------------------------------------------------------|
D|-----------------------------5-------7------7-7-7-7-----------------------|
A|------7 8--------------7---- 7-------8------8 8-8-8-----------------------|
E|--0--------0 5 0 8 5 0 8 0 0----0 0----0 0--------------------------------|

e|--------------------------------------------------------------------------|
B|--------------------------------------------------------------------------|
G|--14 14 14 14 14 14 14 14-------------------------------------------------|
D|--------------------------------------------------------------------------|
A|--12 12 12 12 12 12 12 12-------------------------------------------------|
E|--------------------------------------------------------------------------|

e|--------------------------------------------------------------------------|
B|--------------------------------------------------------------------------|
G|---------0 7 9 0 10 12 14 15 14 12-----------0 7 9 0 10 12 14 15 14 12----|
D|--0 7 10 ----------------------------0 7 10-------------------------------|
A|--------------------------------------------------------------------------|
E|--------------------------------------------------------------------------|

e|------------------------------------------------------------------15bend--|
B|------------------------------------18 15 17bend----------18--15----------|
G|-----------------0 9 10----15 14------------------15 14 ------------------|
D|---0 7 10 0 7 10 ---------------------------------------------------------|
A|--------------------------------------------------------------------------|
E|--------------------------------------------------------------------------|

e|--------------------------------------------------------------------------|
B|--------18 15 17bend-----------18 14--------------------------------------|
G|15 14 ------------------15 14 --------------------------------------------|
D|--------------------------------------------------------------------------|
A|--------------------------------------------------------------------------|
E|--------------------------------------------------------------------------|

e|---------------------------------------------------------------------------|
B|----18 18 18 18----15 15 17 17---------------------------------------------|
G|----------------------------------15bend 14bend----------------------------|
D|------------------------------------------------14bend---------------------|
A|---------------------------------------------------------------------------|
E|---------------------------------------------------------------------------|

e|--------------------------------------------------------------------------|
B|-----------------------------------------------------------6-----10-------|
G|--------------------------------------------------------7------10---------|
D|-14-14 14 14 14 14 14 14 14 14 14 14 15 15 15 15-----5------8-------------|
A|-12-12 12 12 12 12 12 12 15 15 15 15 17 17 17 17--------------------------|
E|--------------------------------------------------------------------------|

e|------------------------------15------------------------------------------|
B|------------------15 17 17 18----17 12 14bend-----------------------------|
G|------------14 15---------------------------------------------------------|
D|15 14---------------------------------------------------------------------|
A|-----15 17----------------------------------------------------------------|
E|--------------------------------------------------------------------------|


 sorry i couldnt fit the whole song in but this is 90% of the song. tell me what you 
cause this is my first tab!
===============================================================================
Related for The Accountable tab