Song name
# A B C D E F G H I J K L M N O P Q R S T U V W X Y Z

Oceana - The Accountable tab

Help us improve GuitareTab! Take a short survey!
THE ACCOUNTABLE - OCEANA

This is the the part that the lead guitarist plays 0:33 through 0:55. This whole part is 
and has no picking. I hope everything is clear because this is my first tab ever so 
feedback.

Tuning: Drop C#

L means its tapped with left hand and R means tapped with right.
~ - let ring


        R     L       R        L      R      R  R
|---------------------------------------------------------------------------|
|---------------------------------------------------------------------------|
|----------------------------9h10---12/14-----------------------------------|
|------10---5h7----10/12---------------------15-14--------------------------|
|---------------------------------------------------------------------------|
|---------------------------------------------------------------------------|

        R     L       R        L      R      R
|---------------------------------------------------------------------------|
|---------------------------------------------------------------------------|
|----------------------------9h10---12/14-----------------------------------|
|------10---5h7----10/12---------------------14-----------------------------|
|---------------------------------------------------------------------------|
|---------------------------------------------------------------------------|

        R     L       R        L      R      R  R
|---------------------------------------------------------------------------|
|---------------------------------------------------------------------------|
|----------------------------9h10---12/14-----------------------------------|
|------10---5h7----10/12---------------------15-14--------------------------|
|---------------------------------------------------------------------------|
|---------------------------------------------------------------------------|

        R     L       R        L
|---------------------------------------------------------------------------|
|---------------------------------------------------------------------------|
|----------------------------9h10~------------------------------------------|
|------10---5h7----10/12----------------------------------------------------|
|---------------------------------------------------------------------------|
|---------------------------------------------------------------------------|

you repeat the whole thing twice.
Related for The Accountable tab