Song name
# A B C D E F G H I J K L M N O P Q R S T U V W X Y Z

Oceana - Mindless Mindless tab

feel free to correct and comment, i know that a bunch of this is wrong.
thanks


D#[-----------------------------------------]
A#[-----------------------------------------]
F#[---------10-------------------10---------]
C#[-0-0--------x32?--------0-0------x32?----]
G#[-0-0------8-------------0-0----8---------]
C#[-0-0--------------------0-0--------------] x2

D#[----------------------------]
A#[----------------------------]
F#[----------------------------]
C#[-0-0-0----0-0-0------7-8-5--]
G#[-0-0-0----0-0-0---5---------]
C#[-0-0-0----0-0-0-------------]  

D#[---------------------------------------]
A#[-------------------6-------------------]
F#[-------------------9-------------------]
C#[-0-0-0----0-0-0-------0-5-0-8--10------]
G#[-0-0-0----0-0-0-------0-5-0-8--10------]
C#[-0-0-0----0-0-0-------0-5-0-8--10------]

D#[-------------------------------------]
A#[--------------------------11---------]
F#[-------- ---9-10~------------13------]
C#[-0-0-0~---7--------0-0-0-------12----]
G#[-0-0-0~------------0-0-0-------------]
C#[-0-0-0~------------0-0-0-------------] x2

D#[------------------------]
A#[------------------------]
F#[------------------------]
C#[-0-x16------------------] (palm muted)
G#[--------------0-x16-----]
C#[------------------------] x2

D#[--------]
A#[--------]
F#[--------]
C#[---0~---] 
G#[---0~---]
C#[---0~---]
Tap to rate this tab
 
# A B C D E F G H I J K L M N O P Q R S T U V W X Y Z