Song name
# A B C D E F G H I J K L M N O P Q R S T U V W X Y Z

Oceanics - The City tab

Great song from cool Oz band Oceanics!

Band Page: http://www.facebook.com/Oceanics.music

Reference Video: http://www.youtube.com/watch?v=g-b-YNv7Bj0

Artist: Oceanics
Song: The City
Album: Single
Tuning: Standard

Lead Guitar 

e |-11--8-----8---11--8--------11--8---------------------------|
B |--------11-----------11-11--------11------------------------|
G |-------------------------------------8--10--8--5-10--8--5---|
D |------------------------------------------------------------|
A |------------------------------------------------------------|        
E |------------------------------------------------------------|

Rhythm Guitar

e |--2---2---0-------------|
B |--3---2---0-------------|
G |--2---2---0-------------|
D |--0---4---2-------------|
A |--0---4---2-------------|    
E |--x---x---0-------------|

Verse


e |--2---2---0-------------|
B |--3---2---0-------------|
G |--2---2---0-------------|
D |--0---4---2-------------|
A |--0---4---2-------------|    
E |--x---x---0-------------|


Pre-Chorus/Hook

e |--x---2--x-------x--x---0--|
B |--3---2--5-------3--2---0--|
G |--4---2--6-(x2)--4--2---0--|
D |--5---4--7-------5--4---2--|
A |--5---4--7-------5--4---2--|         
E |--x---x--x-------x--x---x--|


Chorus

e |-11--8-----8---11--8--------11--8---------------------------|
B |--------11-----------11-11--------11------------------------|
G |-------------------------------------8--10--8--5-10--8--5---|
D |------------------------------------------------------------|
A |------------------------------------------------------------|        
E |------------------------------------------------------------|

Rhythm Guitar

e |--2---2---0-------------|
B |--3---2---0-------------|
G |--2---2---0-------------|
D |--0---4---2-------------|
A |--0---4---2-------------|    
E |--x---x---0-------------|

Bridge

e |--x--x--x----x-----------|
B |--3--7--5----3-----------|
G |--4--8--6----4-----------|
D |--5--9--7----5-----------|
A |--5--9--7----5-----------|   
E |--x--x--x----x-----------|
Tap to rate this tab
 
# A B C D E F G H I J K L M N O P Q R S T U V W X Y Z