Song name
# A B C D E F G H I J K L M N O P Q R S T U V W X Y Z

Oceano - Fractured Frames Scattered Flesh tab

Here's the breakdown.

----------------------------------  ---|
----------------------------------  ---|
----------------------------------  ---|
----------------------------------  ---|
222-111-333-222-111-333-222-111---x2---|
222-111-333-222-111-333-222-111---  -0-|
... ... ... ... ... ... ... ...

------------------------------------------------------|
------------------------------------------------------|
------------------------------------------------------|
------------------------------------------------------|
2--1--3--2--1--6--1-2-5-----2--1--3--2--1--6--1-2-----|
2--1--3--2--1--6--1-2-5-5*--2--1--3--2--1--6--1-2-5*--|
.  .     .  .     . .       .  .     .  .     . .
---------------------------------------------------|
---------------------------------------------------|
---------------------------------------------------|
---------------------------------------------------|
2--1--3--2--1--6--1-2-5--2--1--3--2--1--6--1-2-----|
2--1--3--2--1--6--1-2-5--2--1--3--2--1--6--1-2-5*\-|
.  .     .  .     . . .  .  .     .  .     . .

easy, but I just felt like doing it, so there. You can use this if your
doing the whole song. just mention me or something. \m/
http://www.earache.com/
Tap to rate this tab
# A B C D E F G H I J K L M N O P Q R S T U V W X Y Z