Song name
# A B C D E F G H I J K L M N O P Q R S T U V W X Y Z

Oceano - District Of Misery tab

District Of Misery: Oceano                        Tabbed By: Jon A. Hosseini
Tuning:Drop a standard (D)
Im lookig forward to tabbing more of these guys awesome songs.


-----------------------------------------------------|
-----------------------------------------------------|
-----------------------------------------------------|
-----------------------------------------------------|    x8
-1-1-1------1-1-1--1-1-1--1-1-1------------1-1-1-----|
-1-1-1------1-1-1--1-1-1--1-1-1------------1-1-1-----|

Tremolo Pick each    for exact picking just listen to the song.
------------------------------------------------------|
------------------------------------------------------|
------------------------------------------------------|
------------------------------------------------------|
------------------------------------------------------|
---0---8--7-5--4--------------------------------------|

-----------------------------------------------------|
-----------------------------------------------------|
-----------------------------------------------------|
-----------------------------------------------------|
-----------------------------------------------------|
---0---8--7-12---5--4--------------------------------|

-----------------------------------------------------|
-----------------------------------------------------|
-----------------------------------------------------|
-----------------------------------------------------|
---2-1-0-2----1-1-0-1--------------------------------|
---2-1-0-2----1-1-0-1--------------------------------|

Break (Instrumental) I hink it goes sumpthin lik this

---------------8--7-----------------------------------|
------------9-----------------------------------------|
-------12---------------------------------------------|
------------------------------------------------------|
------------------------------------------------------|
------------------------------------------------------|


------------------------------------------------------|
------------------------------------------------------|
------------------------------------------------------|  play during break
------------------------------------------------------|
------------------------------------------------------|
-0--0-0--0--0--0--0--0-0-0--0--0-0--0--0--0--0--0-0-0-|

------------------------------------------------------|
------------------------------------------------------|      and this
------------------------------------------------------|
------------------------------------------------------|
-0--0-0--0--0--0--0--0-0-0--0--0-0--0--0--0--0--0-0-0-|
-1--1-1--1--1--1--1--1-1-1--1--1-1--1--1--1--1--1-1-1-|

-----------------------------------------------------------------|
-----------------------------------------------------------------|
-----------------------------------------------------------------|
-----------------------------------------------------------------|
-0-0-0-0-0-0-0-0-0-0-0-0-0-0-0-0-0-0-0-0-0-0-0-0-0-0-0-0-0-0-0-0-|
-1-1-1-1-1-1-1-1-1-1-1-1-1-1-1-1-1-1-1-1-1-1-1-1-1-1-1-1-1-1-1-1-|
x2 either do this or replace the open on the a string with a F note to make it sound better.

------------------------------------------------------|
------------------------------------------------------|
------------------------------------------------------|
------------------------------------------------------| x2 i think
-2-------------------7-------6------------------------|
-2-------------------7-------6------------------------|

------------------------------------------------------|
------------------------------------------------------|
------------------------------------------------------|
------------------------------------------------------| x2
------------------------------------------------------|
-2tp-------------------7tp-------6tp------------------|


--------------------------------------------------------------------|
--------------------------------------------------------------------|
--------------------------------------------------------------------|
--------------------------------------------------------------------| x2 i think
-2--2-2-2-2-2-2-2-2-2-2---7-7-7-7--6-6-6-6-6-6-6-6-6-6-6-6-6-6-6-6--|
-2--2-2-2-2-2-2-2-2-2-2---7-7-7-7--6-6-6-6-6-6-6-6-6-6-6-6-6-6-6-6--|


-----------------------------------------------------|
-----------------------------------------------------|
-----------------------------------------------------|
-----------------------------------------------------|    x8 it may vary on the ending
-1-1-1------1-1-1--1-1-1--1-1-1------------1-1-1-----|
-1-1-1------1-1-1--1-1-1--1-1-1------------1-1-1-----|
Tap to rate this tab
 
# A B C D E F G H I J K L M N O P Q R S T U V W X Y Z