Oceano - The Contaminated tab

Oceano
The Contaminated
Contagion

> < = slides
*= Palm Mute
~= let ring
T= Tremelo

First Tab, take it easy on me.

Riff 1
|------------------------------------------------|
|------------------------------------------------|
|------------------------------------------------|
|------------------------------------------------|
|------------------------------------------------|
|---------4--------4----4--------4--------4----4-|
|-00000000-00000000-0000-00000000-00000000-0000--|
  ********T********T****T********T********T****T
|------------------------------------------------|
|------------------------------------------------|
|------------------------------------------------|
|------------------------------------------------|
|------------------------------------------------|
|---------6--------6----6--------6--------6----6-|
|-44444444-44444444-4444-44444444-44444444-4444--|
  ********T********T****T********T********T****T

Riff 1 (harmony)
|------------------------------------------------|
|------------------------------------------------|
|------------------------------------------------|
|------------------------------------------------|
|---------3--------3----3--------3--------3----3-|
|------------------------------------------------|
|-00000000-00000000-0000-00000000-00000000-0000--|
  ********T********T****T********T********T****T
|------------------------------------------------|
|------------------------------------------------|
|------------------------------------------------|
|------------------------------------------------|
|---------4--------4----4--------4--------4----4-|
|------------------------------------------------|
|-44444444-44444444-4444-44444444-44444444-4444--|
  ********T********T****T********T********T****T
Riff 2
     (slide octave chords)

|------------------------------------------------|
|------------------------------------------------|
|------------------------------------------------|
|----6>7<6-------3>4<3---------------------------|
|2-1-------2-1-0-------2-1-4-2-1-4-2-------------|
|2-1-4>5<4-2-1-0-1>2<1-2-1-1-2-1-1-2-------------|
|2-1-------2-1-0-------2-1---2-1---2-------------|
 * *       * * *       * *   * *   *
|------------------------------------------------|
|------------------------------------------------|
|------------------------------------------------|
|----6>7<6-------3>4<3---------------------------|
|2-1-------2-1-0-------2-1-4-5-4-2-4-------------|
|2-1-4>5<4-2-1-0-1>2<1-2-1-4-5-4-2-4-------------|
|2-1-------2-1-0-------2-1-4-5-4-2-4-------------|
 * *       * * *       * * *   * * *

Riff 3
|------------------------------------------------|
|------------------------------------------------|
|------------------------------------------------|
|------------------------------------------------|
|1~~-4-1-1~~-4-1-1-4-0~~-4-0-3~~-0-1-------------|
|1~~-1-1-1~~-1-1-1-1-0~~-1-0-0~~-0-1-------------|
|1~~---1-1~~---1-1---0~~---0-----0-1-------------|
       *       * *         *     *  
Riff 4 
(def not sure about this riff, best i could get)
|------------------------------------------------|
|------------------------------------------------|
|------------------------------------------------|
|------------------------------------------------|
|----------------4-------------------------------|
|----1-----2---2-------2-----2-------------------|
|1-2---2-3---4-----3-4---2-3---3-----------------|
     T     T     T     T     T     PALM MUTE ALL NOTES
Dont know if the riff is right so i didnt try to figure out the harmony

Breakdown

if your able to play this song you should have no problem figuring out the berakdown.
heres the chords used in the first one

|------------------------------------------------|
|------------------------------------------------|
|------------------------------------------------|
|------------------------------------------------|
|2-2--222-2 222----------3-3---333-3-333---------|
|1-1--111-1-111etc...----2-2---222-2-222---------|
|2-2--222-2-222----------3-3---333-3-333---------|you get the point

Riff 2 (alt)

|------------------------------------------------|
|------------------------------------------------|
|-(3 is harmony)---------------------------------|
|----------------3>4<3---------------------------|
|2-1-(3)---2-1-0---------------------------------|
|2-1--5----2-1-0-1>2<1-1-0-3-4-3-1-3-------------|
|2-1-------2-1-0-------2-1-4-5-4-2-4-------------|
 * * (*T)  * * *       * * *   * * *
|------------------------------------------------|
|------------------------------------------------|
|-(3 is harmony)---------------------------------|
|----(3)---------3>4<3---------------------------|
|2-1--5----2-1-0---------------------------------|
|2-1-------2-1-0-1>2<1-1-0-3-4-3-2-1-------------|
|2-1-------2-1-0-------2-1-4-5-4-3-2-------------|
 * * (*T)  * * *       * * *   * * *

Riff 3
|------------------------------------------------|
|------------------------------------------------|
|------------------------------------------------|
|------------------------------------------------|
|1~~-4-1-1~~-4-1-1-4-0~~-4-0-3~~-0-1-------------|
|1~~-1-1-1~~-1-1-1-1-0~~-1-0-0~~-0-1-------------|
|1~~---1-1~~---1-1---0~~---0-----0-1-------------|
       *       * *         *     *  

SOLO

|->16~---13~----5~----8~----10-8-7-8~~-----------|
|------------------------------------------------|
|------------------------------------------------|
|------------------------------------------------|
|------------------------------------------------|
|------------------------------------------------|
|------------------------------------------------|


and thats all i have haha

LAST BREAKDOWN RIFF

|------------------------------------------------|
|------------------------------------------------|
|------------------------------------------------|
|------------------------------------------------|
|-2-2-2-2-3----2-2-3-----------------------------|sorta goes like this 
|-1-1-1-1-5----1-1-1-----------------------------|not 100% on it
|-2-2-2-2---2--2-2-2-----------------------------|
  * * * * T B  * * T
Tap to rate this tab
 
# A B C D E F G H I J K L M N O P Q R S T U V W X Y Z