Guitaretab - guitar tabs
Song name
# A B C D E F G H I J K L M N O P Q R S T U V W X Y Z

Oceans Of Sadness - Two Voices tab

Band:  OCEANS OF SADNESS
Album: SENT IN THE CLOWNS
Song:  TWO VOICES

Copyright (c)  APACHE PRODUCTIONS 2004
Version 1.0 - 2008-10-12

Transcribed By: SMETSAR
Email:          SMETSAR@HOTMAIL.COM


.  - palm mute           /  - slide up to
\  - slide down to       ~  - vibrato
h  - hammer on           b  - Bend
p  - pull off            Suffixes for bend
t  - tap                 f  - full bend    h - half bend
ph - pinched harmonic    q  - quarter bend t - tap bend
*  - see comment         ^  - Hold bend    r release bend
x  - Stuccatto           ~  - vibrato bend
,  - slight palm mute    () - ghost note, sustained note
"  - tremolo note        <> - Trill

This is the first Oceans Of Sadness tab that has ever been made. 
Even the guys from Oceans havenít made any tab of their songs yet!

Enjoy this song and play it all day long to entertain your neighbours!


INTRO: X4
E|---------------------------------------------------------|
B|---------------------------------------------------------|
G|---------------------------------------------------------|
D|---------------------------------------------------------|
A|-5---3h5---5---3h5---6---5-------------------------------|
D|---0-----0---0-----0---0---0-----------------------------|
     .     .   .     .   .   .
RIFF 1: X4
E|---------------------------------------------------------|
B|---------------------------------------------------------|
G|---------------------------------------------------------|
D|---------------------------------------------------------|
A|-5---3h5---5---3h5---6---5---3h5---5----3h5---3---5---3--|
D|---0-----0---0-----0---0---0-----0---00-----0---0---0----|
     .     .   .     .   .   .     .   ..     .   .   .

E|---------------------------------------------------------|
B|---------------------------------------------------------|
G|---------------------------------------------------------|
D|---------------------------------6------6------5---5-----|
A|-5---3h5---5---3h5---6---5-------6------6------5---5-----|
D|---0-----0---0-----0---0---0-000-6--000-6--000-5-5-5-5---|
     .     .   .     .   .   . ...    ...    ...   .   .

RIFF 2: X4
E|---------------------------------------------------------|
B|---------------------------------------------------------|
G|---------------------------------------------------------|
D|-0---3-2-1------------0---3-2-3--3-3-3-5--3--------------|
A|-0---3-2-1------------0---3-2-1--1-1-1-3--1--------------|
D|-0-0-3-2-1-1111111----0-0-3-2----------------------------|
     .       .......      .
E|---------------------------------------------------------|
B|---------------------------------------------------------|
G|---------------------------------------------------------|
D|-0---3-2-1------------3-----------1---1---1--------------|
A|-0---3-2-1------------1-1111111---1---1---1--------------|
D|-0-0-3-2-1-1111111--------------0-1-1-1-1-1-1------------|
     .       .......      ....... .   .   .   .

RIFF 1: X2
RIFF 2: X2

RIFF 2a: 
Guitar 1:
E|---------------------------------------------------------|
B|---------------------------------------------------------|
G|---------------------------------------------------------|
D|-0---3-2-1------------0---3-2-3--3-3-3-5--3--------------|
A|-0---3-2-1------------0---3-2-1--1-1-1-3--1--------------|
D|-0-0-3-2-1-1111111----0-0-3-2----------------------------|
     .       .......      .
E|---------------------------------------------------------|
B|---------------------------------------------------------|
G|---------------------------------------------------------|
D|-0---3-2-1------------3-----------1---1---1--------------|
A|-0---3-2-1------------1-1111111---1---1---1--------------|
D|-0-0-3-2-1-1111111--------------0-1-1-1-1-1-1------------|
     .       .......      ....... .   .   .   .
E|---------------------------------------------------------|
B|---------------------------------------------------------|
G|---------------------------------------------------------|
D|-0---3-2-1------------0---3-2-3--3-3-3-5--3--------------|
A|-0---3-2-1------------0---3-2-1--1-1-1-3--1--------------|
D|-0-0-3-2-1-1111111----0-0-3-2----------------------------|
     .       .......      .
E|---------------------------------------------------------|
B|---------------------------------------------------------|
G|---------------------------------------------------------|
D|-0---3-2-1------------7---7---7---7---7---7---7---7------|
A|-0---3-2-1------------7---7---7---7---7---7---7---7------|
D|-0-0-3-2-1-1111111----7-7-7-7-7-7-7-7-7-7-7-7-7-7-7-7----|
     .       .......      .   .   .   .   .   .   .   .

Guitar 2:
E|-10--10-13-12-11-11-11-11-11-11-11-11-11-----------------|
B|---------------------------------------------------------|
G|---------------------------------------------------------|
D|---------------------------------------------------------|
A|---------------------------------------------------------|
D|---------------------------------------------------------|

E|-10--10-13-12-18--18-18-18-20--18------------------------|
B|---------------------------------------------------------|
G|---------------------------------------------------------|
D|---------------------------------------------------------|
A|---------------------------------------------------------|
D|---------------------------------------------------------|

E|-10--10-13-12-11-11-11-11-11-11-11-11-11-----------------|
B|---------------------------------------------------------|
G|---------------------------------------------------------|
D|---------------------------------------------------------|
A|---------------------------------------------------------|
D|---------------------------------------------------------|
[ Tab from: http://www.guitaretab.com/o/oceans-of-sadness/116810.html ]
E|-13p12p10-13p12p10-13p12p10-13p12p10---------------------|
B|---------------------------------------------------------|
G|---------------------------------------------------------|
D|---------------------------------------------------------|
A|---------------------------------------------------------|
D|---------------------------------------------------------|

E|-18p17p15-18p17p15-18p17p15-18p17p15---------------------|
B|---------------------------------------------------------|
G|---------------------------------------------------------|
D|---------------------------------------------------------|
A|---------------------------------------------------------|
D|---------------------------------------------------------|

E|-10--10-13-12-11-11-11-11-11-11-11-11-11-----------------|
B|---------------------------------------------------------|
G|---------------------------------------------------------|
D|---------------------------------------------------------|
A|---------------------------------------------------------|
D|---------------------------------------------------------|

E|-10--10-13-12-18--18-18-18-20--18------------------------|
B|---------------------------------------------------------|
G|---------------------------------------------------------|
D|---------------------------------------------------------|
A|---------------------------------------------------------|
D|---------------------------------------------------------|

E|-10--10-13-12-11-11-11-11-11-11-11-11-11-----------------|
B|---------------------------------------------------------|
G|---------------------------------------------------------|
D|---------------------------------------------------------|
A|---------------------------------------------------------|
D|---------------------------------------------------------|

E|---------------------------------------------------------|
B|---------------------------------------------------------|
G|---------------------------------------------------------|
D|-7---7---7---7---7---7---7---7---------------------------|
A|-7---7---7---7---7---7---7---7---------------------------|
D|-7-7-7-7-7-7-7-7-7-7-7-7-7-7-7---------------------------|
     .   .   .   .   .   .   .

RIFF 3: X4
Guitar 1:
E|---------------------------------------------------------|
B|---------------------------------------------------------|
G|---------------------------------------------------------|
D|-3----5----0----3----0-2-7----3--------------------------|
A|-3----5----0----3----0-2-7----3--------------------------|
D|-3----5----0----3----0-2-7----3----000-000-000-000-------|
				       ... ... ... ...
Guitar 2:
E|---------------------------------------------------------|
B|---------------------------------------------------------|
G|-10p9p7-10p9p7-10p9p7-10p9p7-----------------------------|
D|---------------------------------------------------------|
A|---------------------------------------------------------|
D|---------------------------------------------------------|

E|---------------------------------------------------------|
B|---------------------------------------------------------|
G|-12p10p9-12p10p9-12p10p9-12p10p9-------------------------|
D|---------------------------------------------------------|
A|---------------------------------------------------------|
D|---------------------------------------------------------|

E|---------------------------------------------------------|
B|----------------------10--8------10----------------------|
G|-12--10--9--10--9--7---------10------10--9--7------------|
D|---------------------------------------------------------|
A|---------------------------------------------------------|
D|---------------------------------------------------------|

RIFF 4: X4
E|---------------------------------------------------------|
B|---------------------------------------------------------|
G|---------------------------------------------------------|
D|---------------------------------------------------------|
A|---------------------------------------------------------|
D|-000-000-000-000-000-000-000-0000------------------------|
   ... ... ... ... ... ... ... ....

RIFF 5: X4
Guitar 1:
E|---------------------------------------------------------|
B|---------------------------------------------------------|
G|---------------------------------------------------------|
D|---------------------------------------------------------|
A|-----8------8------7------7------10------10------8------8|
D|-000----000----000----000----000-----000-----000----000--|
   ...    ...    ...    ...    ...     ...     ...    ... 

E|---------------------------------------------------------|
B|---------------------------------------------------------|
G|---------------------------------------------------------|
D|---------------------------------------------------------|
A|-----8------8------7------7------------------------------|
D|-000----000----000----000----000-000-000-000-------------|
   ...    ...    ...    ...    ... ... ... ... 

Guitar 2:
E|---------------------------------------------------------|
B|---------------------------------------------------------|
G|---------------------------------------------------------|
D|-----7------7------5------5-------8-------8------7------7|
A|---------------------------------------------------------|
D|-000----000----000----000----000-----000-----000----000--|
   ...    ...    ...    ...    ...     ...     ...    ... 

E|---------------------------------------------------------|
B|---------------------------------------------------------|
G|---------------------------------------------------------|
D|-----7------7------5------5------7----7----7----7--------|
A|---------------------------------------------------------|
D|-000----000----000----000----000--000--000--000----------|
   ...    ...    ...    ...    ...  ...  ...  ...

RIFF 1: X3
RIFF 5: X2

OUTRO: X2
E|---------------------------------------------------------|
B|---------------------------------------------------------|
G|---------------------------------------------------------|
D|-3----5----0----3----0-2-7----3----0---------------------|
A|-3----5----0----3----0-2-7----3----0---------------------|
D|-3----5----0----3----0-2-7----3----0---------------------|