Oceanship - Hotblack tab

Alright, this is the first tab I've ever written.
I noticed there was only incorrect tabs of the song "hotblack" by Oceanship, So I 
thought I'd submit one that, to me, sound better than the other ones.
So this is how you play it

|--0-------------0--------------------------0---------------------------|
|--1-------------1--------------------------1---------------------------|
|--2-------------0--------------------------2---------------------------|
|--3-------------2--------------------------2---------------------------|
|--x-------------3--------------------------0---------------------------|
|--x-------------x--------------------------x---------------------------|
took a big trip      with your own band        to your homeland

|--3------------------------------------------------------------------|
|--3------------------------------------------------------------------|
|--2------------------------------------------------------------------|
|--0------------------------------------------------------------------|
|--x------------------------------------------------------------------|
|--x------------------------------------------------------------------|
     for the wrong man


this repeats throughout the whole song.
If you feel somethings need changing, you can email me at kompisar12@hotmail.com
Tap to rate this tab
 
# A B C D E F G H I J K L M N O P Q R S T U V W X Y Z