Song name
# A B C D E F G H I J K L M N O P Q R S T U V W X Y Z

Oceansize - Oscar Acceptance Speech tab

A rough starting point for the riff at 2:35

I know this isn't right, but it's close...

e----------------------------------------------|
b----------------------------------------------|
g----------------------------------------------|
d-----4--------------------------------4-------|
a--2----------------------7--4--5---4-5-5-4----|
d--------0--2--7--7--5-------------------------|


---------------------------------------|
---------------------------------------|
---------------------------------------|
-----7---------------------------4-----|
--7----4--5----------7--4--5--4-5-5-4--|
-------------7-7--5--------------------|
Tap to rate this tab
 
# A B C D E F G H I J K L M N O P Q R S T U V W X Y Z