Oceansize - Part Cardiac tab

Oceansize
Part Cardiac
Self Preserved While The Bodies Float Up

Tuning low to high G G C F A D

N.B. I've done my best to arrange this tab into sections but the timing of 
the song itself is all over the place so I've included some lyrics as 
markers. The notes themselves should be correct, just listen to the song for 
the correct rhythm.

Any comments, questions or queries mail me at ruled_by_secrecy_6@hotmail.com

|--------------|-----------------|---------------|----------------|
|--------------|-----------------|---------------|----------------|
|--------------|-----------------|---------------|----------------|
|--------------|-----------------|-2-------------|----------------|
|-5-7--3-5--1--|---1--1--1--1----|-0-let ring----|----------------|
|-5-7--3-5--1--|---1--1--1--1----|-0-------------|----------------|
PM                 .  .  .

                                 "Self preserved..."
|----------------|--------------|---------------|------------------|
|----------------|--------------|---------------|------------------|
|----------------|--------------|---------------|------------------|
|----------------|--------------|---------------|------------------|
|-0--0-0-0--0-0--|-5-7--3-5--1--|-3--1-1--1--1--|-1-1---1--1-1--1--|
|-0--0-0-0--0-0--|-5-7--3-5--1--|-3--1-1--1--1--|-1-1---1--1-1--1--|

 "and the hard luck..."
|----------------|---------------|------------------|-------------|
|----------------|---------------|------------------|-------------|
|----------------|---------------|------------------|-------------|
|----------------|---------------|------------------|-------------|
|-13-13--10--12--|-0---7-7--3-3--|-5-5--5--5-5--3-3-|-7--3--5--1--|
|-13-13--10--12--|-0---7-7--3-3--|-5-5--5--5-5--3-3-|-7--3--5--1--|

 "So unoriginal..."
|----------------|---------------|------------|------------|
|----------------|---------------|------------|------------|
|----------------|---------------|------------|------------|
|----------------|---------------|------------|------------|
|-1-1--1--3-3--1-|-5--1--1-1--1--|-3-3--1--5--|-0--0-0--0--|
|-1-1--1--3-3--1-|-5--1--1-1--1--|-3-3--1--5--|-0--0-0--0--|

|---------------|
|---------------|
|---------------|
|---------------|
|-7-7--3--5--1--|
|-7-7--3--5--1--|


---


 "Under the sun the..."
|----------------------|--------------------|
|----------------------|--------------------|
|----------------------|--------------------|
|----------------------|--------------------|
|-8--8--8--8-8--10-10--|-6--6--6--6-6--8-8--|
|-8--8--8--8-8--10-10--|-6--6--6--6-6--8-8--|

 "You live for..."
|--------------------|----------------------|
|--------------------|----------------------|
|--------------------|----------------------|
|--------------------|----------------------|
|-13-13-10-10-12-12--|-0--0-0--0--0-0--0----|
|-13-13-10-10-12-12--|-0--0-0--0--0-0--0----|

               "It's not..." 
|-------------|----------------|
|-------------|----------------|
|-------------|----------------|
|-------------|----------------|
|-0--0-0--0---|-7-7--3--5--1///|
|-0--0-0--0---|-7-7--3--5--1///|

 "walked into..."
|-------------------------|---------------------|
|-------------------------|---------------------|
|-------------------------|---------------------|
|-------------------------|---------------------|
|/13-13-13--10-10--12-12--|-13-12-10-12-13--13--|
|/13-13-13--10-10--12-12--|-13-12-10-12-13--13--|


 "under arrest..."
|-------------------------|
|-------------------------|
|-------------------------|
|-------------------------|
|-13--10-10--12-12---12---|
|-13--10-10--12-12---12---|

 "cut the flowers..."
|----------------------|--------------------|
|----------------------|--------------------|
|----------------------|--------------------|
|----------------------|--------------------|
|-8--8--8--8-8--10-10--|-6--6--6--6-6--8-8--|
|-8--8--8--8-8--10-10--|-6--6--6--6-6--8-8--|

 "never come to..."
|----------------|-------------------|
|----------------|-------------------|
|----------------|-------------------|
|----------------|-------------------|
|-4--4--4--4-4---|-4-4-4--4--4-5-1-3-|
|-4--4--4--4-4---|-4-4-4--4--4-5-1-3-|


---


|--------------------------|
|--------------------------|
|--------------------------|
|--------------------------| x2
|-0----0---0--0-0----0-----| 
|-0----0---0--0-0----0-----|


|---10---------------------------------|
|---13bu1/2--let ring------------------|
|--------------------------------------|
|--------------------------------------|
|-0---------0------0----0--0----0------| 
|-0---------0------0----0--0----0------|

                      "shoot so silver..."
|---10----------------------------------|
|---13bu1/2--let ring-------------------|
|---------------------------------------|
|---------------------------------------|
|-0---------0------0----7--7--3--5--1---| 
|-0---------0------0----7--7--3--5--1---|


|--------------------------|
|--------------------------|
|--------------------------|
|--------------------------|
|-0----0---0--0-0----0-----| 
|-0----0---0--0-0----0-----|


|----------------------------|
|----------------------------|
|----------------------------|
|----------------------------|
|-0----0---0--7-7--3--5--1///| 
|-0----0---0--7-7--3--5--1///|


---


 "Some words of..."
|-------------------------|---------------------|
|-------------------------|---------------------|
|-------------------------|---------------------|
|-------------------------|---------------------|
|/13-13-13--10-10--12-12--|-13-12-10-12-13--13--|
|/13-13-13--10-10--12-12--|-13-12-10-12-13--13--|

 "incident..."
|----------------------|------------------------|
|----------------------|------------------------|
|----------------------|------------------------|
|----------------------|------------------------|
|-13--8-8--6-6---6--6--|-4---4-4--4--4-4--4--6--|
|-13--8-8--6-6---6--6--|-4---4-4--4--4-4--4--6--|

 "a sham..."
|-------------------|-------------------|
|-------------------|-------------------|
|-------------------|-------------------|
|-------------------|-------------------|
|-4---4-4---4---7-7-|-5--7--3--5--1--3--|
|-4---4-4---4---7-7-|-5--7--3--5--1--3--|


---


|--------------------|---------------------|
|--------------------|---------------------|
|--------------------|---------------------|
|--------------------|---------------------|
|-0---1--4--3--0--1--|--0--1--4--3--0--1---| x2
|-0---1--4--3--0--1--|--0--1--4--3--0--1---|
PM    .  .  .  .        .  .  .  .  .  


|--------------------|-----------------------|
|--------------------|-----------------------|
|--------------------|-----------------------|
|--------------------|-----------------------|
|-0---1--4--3--0--1--|--0--1--4--3--0--1--1--|
|-0---1--4--3--0--1--|--0--1--4--3--0--1--1--|
PM    .  .  .  .        .  .  .  .  .


|--------------------|---------------------|
|--------------------|---------------------|
|--------------------|---------------------|
|--------------------|---------------------| let last notes ring
|-0---1--4--3--0--1--|--0--1--4--3--0--1---| 
|-0---1--4--3--0--1--|--0--1--4--3--0--1---|
PM    .  .  .  .        .  .  .  .  .  
Tap to rate this tab
 
# A B C D E F G H I J K L M N O P Q R S T U V W X Y Z