Song name
# A B C D E F G H I J K L M N O P Q R S T U V W X Y Z

Oceansize - The Strand tab

Played clean.

Guitar starts at 2:19.

INTRO - Play once.

d|-------------5--5--5--5---3--3--3--3---1--1--------------------------|
A|3--3--3--3--------------------------------------4------3---3---3---3-|
F|-0--0--0--0---0--0--0--0---0--0--0--0---0--0--0---0--0---0---0---0---|
C|---------------------------------------------------------------------|
G|---------------------------------------------------------------------|
C|---------------------------------------------------------------------|

MAIN GUITAR LINE - Repeat for duration of song.

d|5--5--5--5---3--3--3--3---1--1--------------------------|
A|-----------------------------------4------3---3---3---3-|
F|-0--0--0--0---0--0--0--0---0--0--0---0--0---0---0---0---|
C|--------------------------------------------------------|
G|--------------------------------------------------------|
C|--------------------------------------------------------|

SOLO - Play 4 times at following (rough) timestamps. As ever, '~' = vibrato.

The 'solo' in the song is not played on guitar, but I'm sure with enough effects could 
be made to sound close enough.

6:26 - 6:39
6:42 - 6:55
6:59 - 7:12
7:17 - 7:30

d|----------------------------------------------------|
A|10~~~-10-11-13-11-10-8~~~-8-10-11-10-8-6~~~-4~~-3~~-|
F|----------------------------------------------------|
C|----------------------------------------------------|
G|----------------------------------------------------|
C|----------------------------------------------------|
Tap to rate this tab
 
# A B C D E F G H I J K L M N O P Q R S T U V W X Y Z