Song name
# A B C D E F G H I J K L M N O P Q R S T U V W X Y Z

Oceansize - Superimposer tab

Oceansize - SuperImposer 

http://db.tt/RMooRXtm


time-sig: 7/8

2:28

e|-----------------------|-----------------------|-----------------------|-----------------------|
B|-----------------------|-----------------------|-----------------------|-----------------------|
G|-----------------------|--------------5--------|--------------5--------|--------------5--------|
D|--6-----6--------6-----|--8-----8--------8-----|--5-----5--------5-----|--6-----6--------6-----|
A|-----8-----8--8-----8--|-----8-----8--------8--|-----8-----8--------8--|-----8-----8--------8--|
E|-----------------------|-----------------------|-----------------------|-----------------------|


e|-----------------------|-----------------------|-----------------------|-----------------------|
B|-----------------------|-----------------------|-----------------------|-----------------------|
G|--------------5--------|--------------5--------|--------------5--------|--------------5--------|
D|--6-----6--------6-----|--7-----7--------7-----|--8-----8--------8-----|--5-----5--------5-----|
A|-----8-----8--------8--|-----8-----8--------8--|-----8-----8--------8--|-----8-----8--------8--|
E|-----------------------|-----------------------|-----------------------|-----------------------|


e|-----------------------|-----------------------|-----------------------|-----------------------|
B|-----------------------|-----------------------|-----------------------|-----------------------|
G|--------------5--------|-----------------5-----|--------------5--------|--------------5--------|
D|--6-----6--------6-----|--8-----8-----------8--|--6-----6--------6-----|--6-----6--------6-----|
A|-----8-----8--------8--|-----8-----8--8--------|-----8-----8--------8--|-----8-----8--------8--|
E|-----------------------|-----------------------|-----------------------|-----------------------|
Tap to rate this tab
 
# A B C D E F G H I J K L M N O P Q R S T U V W X Y Z