Song name
# A B C D E F G H I J K L M N O P Q R S T U V W X Y Z

Oceansize - Music For A Nurse tab

Song Title: Music For A Nurse
Artist: Oceansize
Album: Everyone Into Position

Just the intro, because the rest is silly complicated to tab out and I don't know it 
Such a beautiful song, enjoy! Oh yer, add a bit of delay. I put full reverb on, delay, then 
to neck pickup and it sounds sweet.

Standard tuning - EADGBE

E-----------------------------------------------------------------|
B----7----------0-----------3-----------2-------------0-----------|
G-----------------------------------------------------------------|
D-----------------------------------------------------------------|
A----5----------------------2-----------0-------------------------|
E---------------3-------------------------------------3-----------|


To play it like they do, in DGCFAD, just move everything up two frets.

D-----------------------------------------------------------------|
A----9----------2-----------5-----------4-------------2-----------|
F-----------------------------------------------------------------|
C-----------------------------------------------------------------|
G----7----------0-----------4-----------2-------------0-----------|
D-----------------------------------------------------------------|

Will add more soon
Tap to rate this tab
 
# A B C D E F G H I J K L M N O P Q R S T U V W X Y Z