Song name
# A B C D E F G H I J K L M N O P Q R S T U V W X Y Z

Oceansize - Music For A Nurse Acoustic tab

Verse
1|-----------------------|
2|-----------------------|
3|-11---4---7---6--4-----|
4|-12---5---7---7--5-----|
5|-12---5---9---7--5-----|
6|-10---3---7---5--3-----|

Then when the singing starts in Verse there's a slight change in the first chord

1|-----------------|
2|-----------------|
3|--11--13--14-----|
4|--12--12--12-----|
5|--12--12--12-----|
6|--10--10--10-----|
 The length of time you play the chord doesnt change, just squeeze those little notes in!

Chorus
1|-----------------|
2|-----------------|
3|--7--6--9---11---|
4|--8--7--10--12---|
5|--8--7--10--12---|
6|--6--5--8---10---|
Tap to rate this tab
# A B C D E F G H I J K L M N O P Q R S T U V W X Y Z