Song name
# A B C D E F G H I J K L M N O P Q R S T U V W X Y Z

Oceansize - Ornament The Last Wrongs tab

Help us improve GuitareTab! Take a short survey!
-------------------------------------------------------------------------------
		      Ornament/ The last wrongs - Oceansize
-------------------------------------------------------------------------------
Tabbed by: Ben Hough	
Email: ben_hough@hotmail.co.uk

Tuning: drop D

e|-----------------------------------------------------------|
B|-----------------------------------------------------------|
G|------4-3---5--------4-3---5---------4-3---5-------7-5---2-|
D|----3-----3--------3-----3---------3-----3-------0-----0---|
A|--3--------------3---------------3-------------0-----------|
D|3---------3----3---------3-----3---------3---0---------3---|




===============================================================================
Related for Ornament The Last Wrongs tab