Song name
# A B C D E F G H I J K L M N O P Q R S T U V W X Y Z

Oceansize - Commemorative 9 11 T-shirt tab

-------------------------------------------------------------------------------
			     Commemorative 9/11 T-Shirt - Oceansize
-------------------------------------------------------------------------------
Tabbed by: Freedom Fighter (Gareth)
Email: paranoid-android1@hotmail.com

Tuning: Standard

e|---------------------8-----------------------------------------------------|
B|--10---10---10----8-----10-------------------------------------------------|
G|-----7----7----7-----------------------------------------------------------|
D|---------------------------------------------------------------------------|
A|---------------------------------------------------------------------------|
E|---------------------------------------------------------------------------|
This seems to chime out through the whole song. Give it some delay, reverb, and some 
to achive the simmilar sound.

e|-------------------------------------------------------------------------------|
B|-------------------------------------------------------------------------------|
G|---7^--------------------------------------------------------------------------|
D|-------------------------------------------------------------------------------|
A|-------------------------------------------------------------------------------|
E|-------------------------------------------------------------------------------|
Very quietly with a volume pedal this is done in the background. Volume up when it's 
volume down when it isn't.

I'll probably add more as I go along. It's a long song and working out all the parts are difficult.
Tap to rate this tab
# A B C D E F G H I J K L M N O P Q R S T U V W X Y Z