Song name
# A B C D E F G H I J K L M N O P Q R S T U V W X Y Z

Octane Ok - Fly Again tab

-------------------------------------------------------------------------------
                             Fly again - Octane Ok
-------------------------------------------------------------------------------
Tabbed by:Connor Smith
E-mail:connorbetts-1995@hotmail.co.uk

Tuning:Standard

Fisrt verse- Guitar 1

e|-0-------------------0~------------------0~-----------------0~-------------|
B|-0-------------------0~------------------0~-----------------0~-------------|
G|-9~------------------8~------------------6------------------8~-------------|
D|-9~------------------9~------------------7~-----------------9~-------------|
A|-7~------------------9~------------------7~-----------------9~-------------|
E|-0~------------------7~------------------5~-----------------7~-------------|

Guitar 2

e|---------------------------------------------------------------------------|
B|---------------------------------------------------------------------------|
G|---------------------------------------------------------------------------|
D|-9-------------------------------------------------------------------------|
A|-7x16----------------9x16----------------7------------------9--------------|
E|---------------------7-------------------5x16---------------7x16-----------|

Guitar 1


e|-0-------------------0~------------------0~-----------------0~-------------|
B|-0-------------------0~------------------0~-----------------0~-------------|
G|-9~------------------8~--------------------------------- ---8~-------------|
D|-9~------------------9~------------------11~----------------9~-------------|
A|-7~------------------9~------------------11~----------------6~-------------|
E|-0~------------------7~------------------9~-----------------0~-------------|

Guitar 2

e|---------------------------------------------------------------------------|
B|---------------------------------------------------------------------------|
G|---------------------------------------------------------------------------|
D|-9---------------------------------------------------------9---------------|
A|-7x16----------------9x16---------------11-----------------6x16------------|
E|---------------------7------------------9x16-------------------------------|

Pre-chorus GUitar 1

e|---------------------------------------------------------------------------|
B|---------------------------------------------------------------------------|
G|-9-------------------------------------------------------------------------|
D|-9-------------------9------------------11-------------------9-------------|
A|-7x16----------------9------------------11x16----------------9-------------|
E|---------------------7x16---------------9--------------------7x16----------|

Guitar 2

e|----------------------------7-7---------------------------7/9-9-9-----------|
B|5-5-4-4-5-5-7-7-5-5-4-4-5-5-------5-5-4-4-5-5-7-7-5-5-4-4-------------------|
G|----------------------------------------------------------------------------|
D|----------------------------------------------------------------------------|
A|----------------------------------------------------------------------------|
E|----------------------------------------------------------------------------|

e|----------------------------7-7-0-0-0-0-0-0-0-0-0-0-0-0-0-0-0-0------------|
B|5-5-4-4-5-5-7-7-5-5-4-4-5-5------------------------------------------------|
G|---------------------------------------------------------------------------|
D|---------------------------------------------------------------------------|
A|---------------------------------------------------------------------------|
E|---------------------------------------------------------------------------|

 Chorus Guitar 1

e|---------------------------------------------------------------------------|
B|---------------------------------------------------------------------------|
G|-9-9-9---------------------------------------------------------------------|
D|-9-9-9-------------9-9-9-9------------6-6-6----------------9---------------|
A|-7-7-7-------------9-9-9-9------------6-6-6----------------9---------------|
E|-------------------7-7-7-7------------4-4-4----------------7x16------------|

Guitar 2

e|---------------------------------------------------------------------------|
B|-0-0-5-5-4-4-5-5-----0-0-5-5-4-4-5-5----0-0-5-5-4-4-5-5-----0-0-5-5-4-4-5-5|
G|---------------------------------------------------------------------------|
D|---------------------------------------------------------------------------|
A|---------------------------------------------------------------------------|
E|---------------------------------------------------------------------------|x3

e|---------------------------------------------------------------------------|
B|-0-0-5-5-4-4-5-5-----0-0-5-5-4-4-5-5----0-0-5-5-4-4-5-5-----0-0-0-0-0-0-0-0|
G|---------------------------------------------------------------------------|
D|---------------------------------------------------------------------------|
A|---------------------------------------------------------------------------|
E|---------------------------------------------------------------------------|

Verse Guitar 1

e|-0-------------------0~------------------0~-----------------0~-------------|
B|-0-------------------0~------------------0~-----------------0~-------------|
G|-9~------------------8~------------------5------------------8~-------------|
D|-9~------------------9~------------------7~-----------------9~-------------|
A|-7~------------------9~------------------7~-----------------9~-------------|
E|-0~------------------7~------------------5~-----------------7~-------------|

Guitar 2

e|---------------------------------------------------------------------------|
B|---------------------------------------------------------------------------|
G|---------------------------------------------------------------------------|
D|-9-------------------------------------------------------------------------|
A|-7x16----------------9x16----------------7------------------9--------------|
E|---------------------7-------------------5x16---------------7x16-----------|

Guitar 1


e|-0-------------------0~------------------0~-----------------0~-------------|
B|-0-------------------0~------------------0~-----------------0~-------------|
G|-9~------------------8~--------------------------------- ---8~-------------|
D|-9~------------------9~------------------11~----------------9~-------------|
A|-7~------------------9~------------------11~----------------6~-------------|
E|-0~------------------7~------------------9~-----------------0~-------------|

Guitar 2

e|---------------------------------------------------------------------------|
B|---------------------------------------------------------------------------|
G|---------------------------------------------------------------------------|
D|-9---------------------------------------------------------9---------------|
A|-7x16----------------9x16---------------11-----------------6x16------------|
E|---------------------7------------------9x16-------------------------------|

Pre-chorus Guitar 1

e|---------------------------------------------------------------------------|
B|---------------------------------------------------------------------------|
G|-9-------------------------------------------------------------------------|
D|-9-------------------9------------------11------------------9--------------|
A|-7x16----------------9------------------11x16---------------9--------------|
E|---------------------7x16---------------9-------------------7x16-----------|

Guitar 2

e|----------------------------7-7---------------------------7/9-9-9-----------|
B|5-5-4-4-5-5-7-7-5-5-4-4-5-5-------5-5-4-4-5-5-7-7-5-5-4-4-------------------|
G|----------------------------------------------------------------------------|
D|----------------------------------------------------------------------------|
A|----------------------------------------------------------------------------|
E|----------------------------------------------------------------------------|

e|----------------------------7-7-0-0-0-0-0-0-0-0-0-0-0-0-0-0-0-0------------|
B|5-5-4-4-5-5-7-7-5-5-4-4-5-5------------------------------------------------|
G|---------------------------------------------------------------------------|
D|---------------------------------------------------------------------------|
A|---------------------------------------------------------------------------|
E|---------------------------------------------------------------------------|

Chorus Guitar 1

e|---------------------------------------------------------------------------|
B|---------------------------------------------------------------------------|
G|-9-------------------------------------------------------------------------|
D|-9------------------9-------------------6-----------------7----------------|
A|-7x16---------------9x16----------------6x16--------------7x16-------------|
E|--------------------7-------------------4-----------------5----------------|x2

Guitar 2

e|---------------------------------------------------------------------------|
B|-0-0-5-5-4-4-5-5-----0-0-5-5-4-4-5-5----0-0-5-5-4-4-5-5-----0-0-5-5-4-4-5-5|
G|---------------------------------------------------------------------------|
D|---------------------------------------------------------------------------|
A|---------------------------------------------------------------------------|
E|---------------------------------------------------------------------------|x4

e|---------------------------------------------------------------------------|
B|-0-0-5-5-4-4-5-5-----0-0-5-5-4-4-5-5----0-0-5-5-4-4-5-5-----0-0-0-0-0-0-0-0|
G|---------------------------------------------------------------------------|
D|---------------------------------------------------------------------------|
A|---------------------------------------------------------------------------|
E|---------------------------------------------------------------------------|

Bridge/solo Guitar 1

e|---------------------------------------------------------------------------|
B|---------------------------------------------------------------------------|
G|--------------------8------------------9~----------------------------------|
D|-9------------------9------------------9~----------------------------------|
A|-9------------------6x16---------------7~----------------------------------|
E|-7x16----------------------------------------------------------------------|

Guitar 2

e|---------------------------------------------------------------------------|
B|---------------------------------------------------------------------------|
G|----------4-4-6-6-----------4-4-6-6-----------4-4-6-6---------4-4----------|
D|--4-4-6-6-----------4-4-6-6-----------4-4-6-6---------4-4-6-6-----4-4--2~--|
A|---------------------------------------------------------------------------|
E|---------------------------------------------------------------------------|

Clean part, listen for the rhythms! 

Guitar 1

e|-0----------------0------------------0------------------0------------------|
B|-0----------------0------------------0------------------0------------------|
G|-9----------------8------------------9------------------8------------------|
D|-9----------------9------------------11-----------------9------------------|
A|-7----------------9------------------11-----------------9------------------|
E|------------------7-------------------------------------7------------------|

Guitar 2

e|-----12-----12-11-12-------12------12-11-12-------12------12-11-12-------12-----12-11-12-|
B|--12----12--------------12----12---------------12----12---------------12---12------------|
G|9----------9---------11----------11---------13----------13---------14---------14---------|
D|-----------------------------------------------------------------------------------------|
A|-----------------------------------------------------------------------------------------|
E|-----------------------------------------------------------------------------------------|x2

Guitar 1

e|---------------------------------------------------------------------------|
B|---------------------------------------------------------------------------|
G|-9-------------------------------------------------------------------------|
D|-9-------------------9------------------6-------------------7--------------|
A|-7x16----------------9x16---------------6x16----------------7x16-----------|
E|---------------------7------------------4-------------------5--------------|

Chorus Guitar 1

e|---------------------------------------------------------------------------|
B|---------------------------------------------------------------------------|
G|-9-9-9---------------------------------------------------------------------|
D|-9-9-9--------------9-------------------6-------------------7--------------|
A|-7-7-7--------------9x16----------------6x16----------------7x16-----------|
E|--------------------7-------------------4-------------------5--------------|

e|---------------------------------------------------------------------------|
B|---------------------------------------------------------------------------|
G|-9-------------------------------------------------------------------------|
D|-9------------------9-------------------6-------------------7--------------|
A|-7------------------9x16----------------6x16----------------7x16-----------|
E|--------------------7-------------------4-------------------5--------------|x2

Guitar 2

e|---------------------------------------------------------------------------|
B|-0-0-5-5-4-4-5-5-----0-0-5-5-4-4-5-5----0-0-5-5-4-4-5-5-----0-0-5-5-4-4-5-5|
G|---------------------------------------------------------------------------|
D|---------------------------------------------------------------------------|
A|---------------------------------------------------------------------------|
E|---------------------------------------------------------------------------|x8

e|---------------------------------------------------------------------------|
B|-0-0-5-5-4-4-5-5-----0-0-5-5-4-4-5-5----0-0-5-5-4-4-5-5-----0-0-0-0-0-0-0-0|
G|---------------------------------------------------------------------------|
D|---------------------------------------------------------------------------|
A|---------------------------------------------------------------------------|
E|---------------------------------------------------------------------------|

Guitar 2

e|-----12-----12-11-12-------12------12-11-12-------12------12-11-12-------12-----12-11-12-|
B|--12----12--------------12----12---------------12----12---------------12---12------------|
G|9----------9---------11----------11---------13----------13---------14---------14---------|
D|-----------------------------------------------------------------------------------------|
A|-----------------------------------------------------------------------------------------|
E|-----------------------------------------------------------------------------------------|x2

************************************

| /   slide up
| \   slide down
| h   hammer-on
| p   pull-off
| ~   vibrato
| +   harmonic
| x   Mute note
| b   Bend
| pb  Pre-bend
| br  Bend release
| pbr Pre-bend release
| brb Bend release bend

************************************
Tap to rate this tab
# A B C D E F G H I J K L M N O P Q R S T U V W X Y Z