Song name
# A B C D E F G H I J K L M N O P Q R S T U V W X Y Z

October Crisis - Crop Circles tab

*##----------------------------OCTOBER CRISIS-----------------------------##*
*##-----------------------------CROP CIRCLES------------------------------##*
*##-----------------------------OFFICIAL TAB------------------------------##*

 4/4
     Gtr I
   ~~
   E
|--------|
|--------|
|--------|
|--------|
|-12-----|
|--------|


  TPTPTPTPTPTPTPTP
  E E E E E E E E  E   E E E E E E E E E E E E E E E E E
|--------------------|---------6h9p6-----------------6h9-||-----|
|--------------------|-------6-------6-------------6-----||o----|
|--------------------|-----7-----------7---------7-------||-----|
|------------------0-|---6---------------6-----6---------||-----|
|------------------0-|-5-------------------5-5-----------||o----|
|-1-5-1-4-1-2-1-3--0-|-----------------------------------||-----|


  E E  E  E E  E E  E E  E  E E  E E  E E E E  E E  E  E E
|-----------------------------------------------------------|
|-----------------------------------------------------------|
|-------------------------------------8-----8---------------|
|---------------------------------------5-6-----------------|
|-0-0--0--0-0--0-0--0-0--0--0-0--0-0--6-5-6-6--0-0--0--0-0--|
|-0-0--0--0-0--0-0--0-0--0--0-0--0-0----5-6----0-0--0--0-0--|


  E  E E  E  E E  E E  E  E E     E E E E E E E E E E E E E E E E
|------------------------------||---------------------------------|-|
|-----------------------------o||---------------------------------|-|
|------------------------------||---------------------------------|-|
|----------------------6S=1-2--||-----8-----8---8-----8-----8---8-|-|
|-0--0-0--0--0-0--0-0--6S=1-2-o||---7-----7---7-----7-----7---7---|-|
|-0--0-0--0--0-0--0-0--6S=1-2--||-0-----0---------0-----0---------|-|


  TPTPTPTPTPTPTPTP  TPTPTPTPTPTPTPTP  TPTPTPTPTPTPTPTP  TPTPTPTPTPTPTP
  E E E E E E E E   E E E E E E E E   E E E E E E E E   E E E E E E E
|-----------------|-----------------|-----------------|----------------|
|-----------------|-----------------|-----------------|----------------|
|-----------------|-----------------|-----------------|----------------|
|-----------------|-----------------|-----------------|----------------|
|-----1-----1---1-|-----1-----1---1-|-----4-----4---4-|-----4-----4----|
|-0-2---0-2---2---|-0-2---0-2---2---|-0-2---0-2---2---|-0-2---0-2---2--|


      TPTPTPTPTPTPTPTP  TPTPTPTPTPTPTPTP  TPTPTPTPTPTPTPTP
  E   E E E E E E E E   E E E E E E E E   E E E E E E E E   E E E E E E
|---|-----------------|-----------------|-----------------|-------------|
|---|-----------------|-----------------|-----------------|-------------|
|---|-----------------|-----------------|-----------------|-------------|
|---|-----------------|-----------------|-----------------|-------------|
|-4-|-----1-----1---1-|-----1-----1---1-|-----4-----4---4-|-----4-----4-|
|---|-0-2---0-2---2---|-0-2---0-2---2---|-0-2---0-2---2---|-0-2---0-2---|


  E E     E E  E  E E  E E  E E  E  E E  E E  E E E E   E E  E
|-----||----------------------------------------------|---------|
|-----||o---------------------------------------------|---------|
|-----||--------------------------------------8-----8-|---------|
|-----||----------------------------------------5-6---|---------|
|---4-||o-0-0--0--0-0--0-0--0-0--0--0-0--0-0--6-5-6-6-|-0-0--0--|
|-2---||--0-0--0--0-0--0-0--0-0--0--0-0--0-0----5-6---|-0-0--0--|
                                                        E E  E


                                         TPTPTPTPTPTPTPTP
  E E  E E  E E  E  E E  E E
|-------------------------------------||-----------------||---------|
|------------------------------------o||-----------------||o--------|
|-------------------------------------||-----------------||---------|
|-----------------------------6S=1-2--||-----------------||--7--4-1-|
|-0-0--0-0--0-0--0--0-0--0-0--6S=1-2-o||-----------------||o-5--4-1-|
|-0-0--0-0--0-0--0--0-0--0-0--6S=1-2--||-1-5-1-4-1-2-1-3-||-----4-1-|
                    E E  E E  E  E E     E E E E E E E E     E  E E


      E E  E  E E  E E  E E  E  E E  E E  E E  E  E E  E E  3x
|---|-------------------------------------------------------||-|
|---|------------------------------------------------------o||-|
|---|-------------------------------------------------------||-|
|---|-------------------------------------------------------||-|
|-2-|------------------------------------------------------o||-|
|-2-|-0-0--0--0-0--0-0--0-0--0--0-0--0-0--0-0--0--0-0--0-0--||-|
  E


  E  E E
|--------*|----|
|--------*|----|
|--------*|----|
|-7--4-1-*|----|
|-5--4-1-*|----|
|----4-1-*|----|

DOWNLOAD "OBSTACLES" FOR FREE AT
www.octobercrisis.bandcamp.com
Tap to rate this tab
# A B C D E F G H I J K L M N O P Q R S T U V W X Y Z