Guitaretab - guitar tabs
Song name
# A B C D E F G H I J K L M N O P Q R S T U V W X Y Z

October Falls - Second Chances tab

www.octfall.com
Tuning: 1/2 step down from standard
Please rate.

 
      Intro/verse (Clean)
|-------------------------------------|
|-------------------------------------|
|-------------------------------------|
|-----------333---------2-- 555-555---|
|--0-2h3----333----3h5------333-333---|
|-----------111-------------333-333---|


     Pre-chorus(Clean, not 100% sure)

Guitar 1
|-------------------------------------|
|-------------------------------------|
|------2------------------------------|
|----0---0---0-----3333--2222---------|
|------------------3333--2222---------|
|--2-------2-------1111--0000---------|

Guitar 2
   |----------------------------5------5------------------5---------4---|
   |--------------------------5---5--------------------6---------5------|
   |------------------------------------------------6---------5---------|
   |----------------------7----------7-----------3----------2-----------|
   |--------------------------------------------------------------------|
   |--------------------------------------------------------------------|


Chorus (clean)
|----------------------------------|
|----------------------------------|
|---------------5555---------------|
|-7777---3333---5555---5555--------|
|-5555---3333---3333---5555--------|
|-5555---1111----------3333--------|
[ Tab from: http://www.guitaretab.com/o/october-falls/149409.html ]
Bridge (Haven't figured out first part yet, but heres the second part right before the solo)
|-------------------------------------|
|-------------------------------------|
|----------12-------------------------|
|-10-12-14----10--7-5-14-14-14-14-12--|x2
|-------------------------------------|
|-------------------------------------|






Solo, fast picking(1010 = Tenth fret twice)

Guitar 1 (distorted)
|------------------------------------------------|
|------------------------------------------------|
|--------------------------------77--------------|
|--[77991010997799101099]77991010--10109977------|x2 (only play stuff in
|------------------------------------------1010--|   brackets x2, leave out
|------------------------------------------------|  the other notes)

Guitar 1 cont. (distorted)
|-------------------------------------|
|-------------------------------------|
|-------------------------------------|
|--10-9----9--10-9------12-14---------|
|-------12----------12----------------|
|-------------------------------------|

Guitar 2 (distorted
|-------------------------------------|
|-------------------------------------|
|---------------5555------------------|
|-7777---3333---5555---5555-----------|x2
|-7777---3333---3333---5555-----------|
|-5555---1111----------3333-----------|


ORDER:

intro/Verse
Pre-chorus
Chorus
Verse
Pre-chorus
Chrous
Pre-chorus
Bridge
Solo










Related for Second Chances tab
Advertisement will be closed in 10 seconds