Song name
# A B C D E F G H I J K L M N O P Q R S T U V W X Y Z

October Mourning - This Nightmares Far From Over tab

I have the whole song except s little chunck of the solo on the recording it was  lil 
so i could make it out but i did put of the rest of the solo


Intro/ 1st verse: Luke
Recommended Effects:
Heavy Flanger with some echo/delay its very thick sounding play on the rhythm pickup
Finger picked(moderatly Fast)
                                   |-----x2------------------------------|
E------------------------------------------------------------------------|
B------0----0----------0-----0--------0-----0----------------------------|
G----0---0----0------0---0-----0-----0--0-----0---Repeat x6 Then Drums---|
D--2-------2----2--0-------0-----0--3-----0-----3------------------------|
A------------------------------------------------------------------------|
D------------------------------------------------------------------------|

Bassline
G--------------------------------------------------------|
D--------------------------------------------------------|
A--7~~~------------5~~~-------------3~~~----3~~----------|
D--------------------------------------------------------|

Heavy Verse:lead
   |P.M-------------------------------------------|Palm mute the single 3 in between
E-------------------------------------------------|
B-------------------------------------------------|
G--99999999---77777777---5555---------------------|
D--99999999---77777777---5555-5----5-----5---5~~--|
A--77777777---55555555---3333---33---33----33-----|
D-------------------------------------------------|

Rhythm
   |P.M--------------------------------------------------|
E--------------------------------------------------------|
B--------------------------------------------------------|
G--99999999---777777777---55555555-----------------------|
D--99999999---777777777---55555555-----------------------|
A--77777777---555555555---33333333-----------------------|
D--------------------------------------------------------|

Chorus:Both guitars NO palm mutes listen for how many times
E-------------------------------------------------------|
B-------------------------------------------------------|
G--99999999---777777777---55555555----------------------|
D--99999999---777777777---55555555----------------------|
A--77777777---555555555---33333333----------------------|
D-------------------------------------------------------|


Solo:
Rhythm same as Chorus but palm mutes
Lead:
E----------------------------------------------------------------------|
B-------------------------------------s10--12----------------15-15~~---|
G---s12-12p11h12---11p9h11--9p7h9p7-7---------12~~~----12-14-----------|
D----------------------------------------------------------------------|
A----------------------------------------------------------------------|
D----------------------------------------------------------------------|

E-10h12-10h12s15--10h12-10h12s15---------------------------------------|
B----------------------------------------------------------------------|
G---------------------------------This is the part im missing----------|
D----------------------------------------------------------------------|
A----------------------------------------------------------------------|
D----------------------------------------------------------------------|

E----------------------------------------------------------------------|
B--10tr12s15--10tr12s15--10tr12s15~~~Br15------------------------------|
G-----------------------------------------16-14-12-br14--14------------|
D----------------------------------------------------------------------|
A----------------------------------------------------------------------|
D----------------------------------------------------------------------|


Chorus: but after about 4 times the lead plays this while the Rhythm plays the continuous Chords

E----------------------------------------------------------------------|
B----------------------------------------------------------------------|
G----------------------------------------------------------------------|
D--99999---7777--9~~--5~~~---------------------------------------------|
A----------------------------------------------------------------------|
D----------------------------------------------------------------------|

then

outro = intro
Tap to rate this tab
# A B C D E F G H I J K L M N O P Q R S T U V W X Y Z