Song name
# A B C D E F G H I J K L M N O P Q R S T U V W X Y Z

Odi Acoustic - Wishing Well tab

Wishing Well by Odi Acoustic
Tabbed By Ollie Steers
It's not 100% correct but pretty much all right.
Check out Odi's Wishing Well cover - 
http://www.youtube.com/watch?v=5rxOITs-rPs
He is a great musician so go check out his other songs.

Capo on 4 (Tabs are relative to capo e.g 9 would become 5)

Intro
E|----------------------------------------------|
B|----------------------------------------------|
G|----------------------------------------------|
D|---10-10-9-9--5-55555--5555-5-5--5555---------|
A|---7-7---7-7--3-33333--xxxx-x-x--xxxx---------| x2
E|-----------------------3333-3-3--5555---------|

Then Strum this (verse)
E|---3-----3-----3-----3------------------------|
B|---3-----3-----3-----3------------------------|
G|----------------------------------------------|
D|---------------------3------------------------|
A|---2-----3------------------------------------|
E|---------------3------------------------------|

Pre Chorus (Couldnt work it out, play alternative 2?)
E|----------------------------------------------|
B|----------------------------------------------|
G|----------------------------------------------|
D|----------------------------------------------|
A|----------------------------------------------|
E|----------------------------------------------|

Chorus, Strum
E|---3-----2-----3-----3------------------------|
B|---3-----3-----3-----3------------------------|
G|---------2------------------------------------|
D|----------------------------------------------|
A|---------------2-----3------------------------|
E|---3------------------------------------------|

E|----------------------------------------------|
B|----------------------------------------------|
G|----------------------------------------------|
D|---10-10-9-9--5-55555--5555-5-5--5555---------|
A|---7-7---7-7--3-33333--xxxx-x-x--xxxx---------| x2
E|-----------------------3333-3-3--5555---------|

E|---------------------------------------------------|
B|---------------------------------------------------|
G|---------------------------------------------------|
D|---101010--555--77777777---101010--555--44444444---|
A|---7-7-7---333--55555555---7-7-7---333--22222222---| x2
E|---------------------------------------------------|

Pre Chorus (2nd time alternative)Strum:
E|---------3----1-------------------------------|
B|---------3------------------------------------|
G|--------------2-------------------------------|
D|---4--5---------------------------------------|
A|---2--3---------------------------------------| x2
E|---------3------------------------------------|

Chorus, Strum
E|---3-----2-----3-----3------------------------|
B|---3-----3-----3-----3------------------------|
G|---------2------------------------------------|
D|----------------------------------------------|
A|---------------2-----3------------------------|
E|---3------------------------------------------|

After Chorus Pick these 'chords'
E|---3-----2-----3-----3-----3------------------|
B|---3-----3-----3-----3-----3------------------|
G|----------------------------------------------|
D|---2------------------------------------------|
A|---------2-----3------------------------------| x2
E|---------------------3-----2------------------|

Chorus, alternative 2 strum each 'chord' once.
E|---3-----3-----3-----3------------------------|
B|---3-----3-----3-----3------------------------|
G|----------------------------------------------|
D|----------------------------------------------|
A|---------------2-----3------------------------| x2
E|---3-----2------------------------------------|

End on
Chorus
E|---3-----|
B|---3-----|
G|---------|
D|---------|
A|---------|
E|---3-----|

Odi's Myspace - http://www.myspace.com/odiacoustic
Tap to rate this tab
# A B C D E F G H I J K L M N O P Q R S T U V W X Y Z