Song name
# A B C D E F G H I J K L M N O P Q R S T U V W X Y Z

Odisseo - Ingenuos tab

fergto78
--## Tablatura de mi versión para Ingenuos de Odisseo,
por Fernando Arroyo, checa mi
cover, para mayor referencia de la tab, en youtube,
http://www.youtube.com/watch?v=BzwcyhvqYwU
además, podrás bajar los backing tracks para practicar :)

Afinación estándar

Intro

Guitarra 02

   Em  Dmaj7
|--7---5----|
|--8---7----|
|.-9---6---.|6 tiempos
|.-9---7---.|
|--7---5----|
|-----------|

Guitarra 01

|----------------------------------------------------------|
|----------------------------------------------------------|
|.---------------------------------------------------------|
|.16-16-16-14-16-14-16-14-16-17-17-17-16-16-16-14-16-14-16-|
|----------------------------------------------------------|
|----------------------------------------------------------|
|
-----------------|
------7----------|
----7---9p7------|
-/9---------9-/--|
-----------------|
-----------------|
|
----------------------------------------------------------|
----------------------------------------------------------|
----------------------------------------------------------|
-16-16-16-14-16-14-16-14-16-17-17-17-16-16-16-14-16-14-16-|
----------------------------------------------------------|
----------------------------------------------------------|
|
-x-x--7-----|
-x-x--10b---|
-----------.|3 tiempos
-----------.|
------------|
------------|

Verso

Guitarra 02

   Em  Dmaj7
|--7---5----|
|--8---7----|
|.-9---6---.|6 tiempos
|.-9---7---.|
|--7---5----|
|-----------|

Al quinto tiempo entra Guitarra 01

|----------------------------------------------------------|
|----------------------------------------------------------|
|----------------------------------------------------------|
|-16-16-16-14-16-14-16-14-16-17-17-17-16-16-16-14-16-14-16-|
|----------------------------------------------------------|
|----------------------------------------------------------|
|
-----------------|
------7----------|
----7---9p7------|
-/9---------9-/--|
-----------------|
-----------------|
|
----------------------------------------------------------|
----------------------------------------------------------|
----------------------------------------------------------|
-16-16-16-14-16-14-16-14-16-17-17-17-16-16-16-14-16-14-16-|
----------------------------------------------------------|
----------------------------------------------------------|
|
-x-x--7----|
-x-x--10b--|
-----------|
-----------|
-----------|
-----------|

Coro

Guitarra 02

  G   Em   A   Asus4
|-3---0--------------|
|-3---0----2---3-----|
|-4---0----2---2-----|
|-5---2----2---2-----|
|-5---2----0---0-----|
|-3---0--------------|

  G   Em   A
|-3---0-------|
|-3---0----2--|
|-4---0----2--|
|-5---2----2--|
|-5---2----0--|
|-3---0-------|

Guitarra 01

  G5  E5  A5  D5/A
|------------------|
|------------------|
|-----9-------7----|
|-5---9---7---7----|
|-5---7---7---5----|
|-3-------5---5----|

  G5  E5  A5
|-------------|
|-------------|
|-----9-------|
|-5---9---7---|
|-5---7---7---|
|-3-------5---|

Verso

Guitarra 02

   Em  Dmaj7
|--7---5----|
|--8---7----|
|.-9---6---.|4 tiempos
|.-9---7---.|
|--7---5----|
|-----------|

Coro

Guitarra 02

  G   Em   A   Asus4
|-3---0--------------|
|-3---0----2---3-----|
|-4---0----2---2-----|
|-5---2----2---2-----|
|-5---2----0---0-----|
|-3---0--------------|

  G   Em   A
|-3---0-------|
|-3---0----2--|
|-4---0----2--|
|-5---2----2--|
|-5---2----0--|
|-3---0-------|

Guitarra 01

  G5  E5  A5  D5/A
|------------------|
|------------------|
|-----9-------7----|
|-5---9---7---7----|
|-5---7---7---5----|
|-3-------5---5----|

  G5  E5  A5
|-------------|
|-------------|
|-----9-------|
|-5---9---7---|
|-5---7---7---|
|-3-------5---|

Solo

Guitarra 02

   Em  Dmaj7
|--7---5----|
|--8---7----|
|.-9---6---.|4 tiempos
|.-9---7---.|
|--7---5----|
|-----------|

Guitarra 01

|--------------------------------|
|--------------------------------|
|---------2---2-4-4br-2---2-4-2--|
|-----2-4---4-----------4--------|
|-2-4----------------------------|
|--------------------------------|

|------------------------------|
|-10-7---7---------------------|
|------9---9-7-9-9br-7---7-9-7-|
|----------------------9-------|
|------------------------------|
|------------------------------|

|---------------------------------------------|
|---------------------------------------------|
|-------------14----14-16-16br-14----14-16-14-|
|-------14-16----16---------------16----------|
|-14-16---------------------------------------|
|---------------------------------------------|

|------------------------------|
|-10-7---7---------------------|
|------9---9-7-9-9br-7---7-9-7-|
|----------------------9-------|
|------------------------------|
|------------------------------|

|--------------------------------|
|--------------------------------|
|---------2---2-4-4br-2---2-4-2--|
|-----2-4---4-----------4--------|
|-2-4----------------------------|
|--------------------------------|

|------------------------------|
|-10-7---7---------------------|
|------9---9-7-9-9br-7---7-9-7-|
|----------------------9-------|
|------------------------------|
|------------------------------|

|---------------------------------------------|
|---------------------------------------------|
|-------------14----14-16-16br-14----14-16-14-|
|-------14-16----16---------------16----------|
|-14-16---------------------------------------|
|---------------------------------------------|

|-------------------|
|-10-7---7-------7--|
|------9---9-7-9-9b-|
|-------------------|
|-------------------|
|-------------------|

Coro

Guitarra 02

  G   Em   A   Asus4
|-3---0--------------|
|-3---0----2---3-----|
|-4---0----2---2-----|
|-5---2----2---2-----|
|-5---2----0---0-----|
|-3---0--------------|

  G   Em   A
|-3---0-------|
|-3---0----2--|
|-4---0----2--|
|-5---2----2--|
|-5---2----0--|
|-3---0-------|

Guitarra 01

  G5  E5  A5  D5/A
|------------------|
|------------------|
|-----9-------7----|
|-5---9---7---7----|
|-5---7---7---5----|
|-3-------5---5----|

  G5  E5  A5
|-------------|
|-------------|
|-----9-------|
|-5---9---7---|
|-5---7---7---|
|-3-------5---|

Outro

Guitarra 02

   Em  Dmaj7
|--7---5----|
|--8---7----|
|.-9---6---.|4 tiempos
|.-9---7---.|
|--7---5----|
|-----------|

  Em
|-7--|
|-8--|
|-9--|
|-9--|
|-7--|
|----|

Guitarra 01

|--------------------------------------|
|--------------------------------------|
|.------------------------------------.|
|.16-16-16-14-16-14-16-14-16-17-17-17-.|8 tiempos
|--------------------------------------|
|--------------------------------------|

|------|
|------|
|------|
|-14~~~|
|------|
|------|

http://odisseo.mx/
Tap to rate this tab
# A B C D E F G H I J K L M N O P Q R S T U V W X Y Z