Song name
# A B C D E F G H I J K L M N O P Q R S T U V W X Y Z

Odorants - Together Again tab

Song:Together again
Artist:The Odorants
Tabbed by:b0di3s

Intro
e|----------------------------------------------------------------------
B|----------------------------------------------------------------------
G|----------------------------------------------------------------------
D|555-4-2-555-4-2-555-4-2-555-4-5555-555-4-2-555-4-2-555-4-2-555-444-5-2
A|----------------------------------------------------------------------
E|----------------------------------------------------------------------

Verse
e|---------
B|---------
G|----7-5-7
D|2-5-7-5-7
A|2-5-5-3-5
E|0-3------

Chorus
e|---------------------------
B|---------------------------
G|---------------------------
D|-------55-555--------77-777
A|22-222-33-333-55-555-55-555
E|00-000--------33-333-------

Bridge
e|-----------------------------------------------
B|-----------------------------------------------
G|-----------------------------------------------
D|5-5-5-7-7-7-------------5-5-5-7-7-7------------
A|3-3-3-5-5-5-2-2-2-5-5-5-3-3-3-5-5-5-2-2-2-2-2-2
E|------------0-0-0-3-3-3-------------0-0-0-0-0-0

Solo
e|------------------------------------------------------------------------
B|------------------------------------------------------------------------
G|--------------------------------------------12-11-7-11-12-11-12-14-16-17
D|------------------------------------------------------------------------
A|(pickslide)222-333-555-777-10-9-5-10-9-10-10----------------------------
E|------------------------------------------------------------------------

End
e|-----------------------|
B|-----------------------|
G|-----------------------|
D|5-4-2-5-4-2-5-4-2-5-7-4|
A|-----------------------|
E|-----------------------|
            4x

Order
Intro
Verse
Chorusx2
Intro
Verse
Chorusx2
Bridgex2
Solo
Chorusx2
End
Tap to rate this tab
# A B C D E F G H I J K L M N O P Q R S T U V W X Y Z