Song name
# A B C D E F G H I J K L M N O P Q R S T U V W X Y Z

Odyssice - And So Am I tab

BAND - ODYSSICE
SONG - AND SO AM I
FROM - MOONDRIVE PLUS (2003)

 b - Bend
 s - Slide
 h - Hammer On
 p - Pull Off
br - Bend Reverse


00:35
[-----13-12---b--b---b--b--------------------volume----]
[--10--------13-13--13-13----10-11-------------control-]
[----------------------------------12---9-9-9--9-------]
[------------------------------------------------------]
[--------------------(SECTION ONE)---------------------]
[------------------------------------------------------]



use volume
control to fade in the notes
00:51                                     hold
[--13--12--15--13--12-13--12--15--13--12-13----15-12----------------------s-]
[-----------------------------------------------------15--13-10--11-8--6-5\-]
[---------------------------------------------------------------------------]
[---------------------------------------------------------------------------]
[---------------------------------------------------------------------------]
[---------------------------------------------------------------------------]


01:26
[----------------------------------]
[----------------------------------]
[--------(REPEAT SECTION ONE)------]
[----------------------------------]
[----------------------------------]
[----------------------------------]


01:38                                   h 
[--------------------------|--------h--3-4-6-4-3-b~~~--b~-b~-b~--]
[--------------h--4-3------|---h---4-6-----------6-----6--6--6---]
[--5--5--5-5--3-5-----3-5--|--3-5-------------whammy-------------]X4
[--------------------------|-------------------------------------]
[--------------------------|-------------------------------------]
[--------------------------|-------------------------------------]


fade in
02:58
[------11-----10----------------------]
[----13-----13-----REPEAT THIS FAST---]
[--12-----12----------21 TIMES--------]
[-------------------------------------]
[-------------------------------------]
[-------------------------------------]


 03:21
     b  b       p                                p            s
[---18-18-18--18-16-15---16-17-14---15-16-13---13-11-10-10-10-\-]
[---------------------------------------------------------------]
[---------------------------------------------------------------]X2
[---------------------------------------------------------------]
[---------------------------------------------------------------]
[---------------------------------------------------------------]

03:41
[-------------------------------|-----------------------]
[-------------------------------|-----------------------]
[-------------------------------|----5-----------s----s-]
[--------------------1-0----s---|--5---5--3---1-3\5-5-\-]
[--3--3--3-3--3--1-3-----1-1\3--|-----------------------]
[-------------------------------|-----------------------]



03:52
[----------------8----8----8----8----8------------------------------------]
[--------h-----b----b----b----b----b----b---b---b---br-----br---br--------]
[---h---8-10--10---10---10---10---10---10--10--10--10--8--10---10-8-7-7---]
[--9-10-------------------------------------------------------------------]
[-------------------------------------------------------------------------]
[-------------------------------------------------------------------------]

    br   you can either play this or not?
[--22--------]
[-PINCH------]
[-HARMONICS--]
[------------]
[------------]
[------------]


04:06
[----------------------------------]
[----------------------------------]
[--------(REPEAT SECTION ONE)------]
[----------------------------------]
[----------------------------------]
[----------------------------------]


use volume
control to fade in the notes
04:23                                     hold         slow bend
[--13--12--15--13--12-13--12--15--13--12-13----15-12----b--]
[-----------------------------------------------------13---]
[----------------------------------------------------------]
[----------------------------------------------------------]
[----------------------------------------------------------]
[----------------------------------------------------------]



http://www.odyssice.com/
Tap to rate this tab
 
# A B C D E F G H I J K L M N O P Q R S T U V W X Y Z