Odyssice - Colors Of Silence tab

BAND - ODYSSICE
SONG - COLORS OF SILENCE
FROM - SILENCE


 br - Bend Reverse
brp - Bend Reverse Pull Off
  h - Hammer on
  P - Pull Off
  s - Slide


                                                           
00:16                                   hold~~   hold~~~~~  hold~~~~ hold~~~
[------------8----------------------8---10-----|-10---------11------15------]
[--7-8-10--8----11-10---7-7-8-10--8------------|-------------------fade in--]
[----------------------------------------------|------------------w/ volume-]
[----------------------------------------------|----------------------------]
[----------------------------------------------|----------------------------]
[----------------------------------------------|----------------------------]

00:53
[----------------------------------------------------]
[----------------p-s---------------------------------]
[---h-h------3--5-3\2----------h---------------p-----]
[--0-3-5------------------3---3-5-----3--1-0--1-0----]
[---------------------------5---------------------3--]
[----------------------------------------------------]


[--------------------------------------------------]
[------------------h---s------------------p-s------]
[------s-----2-3--3-5-5\7-----8-7-5---3--5-3\2--3--]
[--3--3\5------------------------------------------]
[--------------------------------------------------]
[--------------------------------------------------]

01:25
[-------------------------------------------------]
[---h-----------------------h---------s------b-r--]
[--3-5-7-----5-7-8-----7-8-8-10------7\8-7-5-5----]
[-------------------------------------------------]
[-------------------------------------------------]
[-------------------------------------------------]

01:41
[-------------------------------------------------------]
[---h--------------p-s----------------------p-s---------]
[--3-5-7----5-3---5-3\2---------h-s-----3--5-3\2----3---]
[---------------------------3--0-3\5--------------------]
[-------------------------------------------------------]
[-------------------------------------------------------]


[---------------------------------------------]
[-------------h------------h-------------b-r--]
[--3-7---5-7-7-8-8----7-8-8-10----8-7--5-5----]
[---------------------------------------------]
[---------------------------------------------]
[---------------------------------------------]


[------------------s----------s------use s slide--]
[---h---------h--8-\---11---13\--10----10\15------]
[--3-5-7---7-7-8----------------------------------]
[-------------------------------------------------]
[-------------------------------------------------]
[-------------------------------------------------]




03:12
[------------------------------------------------------------------------]
[---h-h-------------p-s--------------------------------------------------]
[--0-3-5----5-7-8-10-8\7---5--h-----s------h-h-------------h-h-----------]
[----------------------------3-5---3\5-3--0-1-3-1---1-3---0-3-5---3-1-0--]
[------------------------------------------------------------------------]
[------------------------------------------------------------------------]

03:26
[----------------------------------------------------------------------]
[-----s---s-----------p-s----------------------------------------------]
[--3-3\5--\---5-7-8-10-8\7---3--h-----h--s----s----------h-s---s-------]
[------------------------------3-5---3-5-\-3--\----1-3--1-3\5-5\3-1-0--]
[----------------------------------------------------------------------]
[----------------------------------------------------------------------]

                                                        
[--------------------------h---b----b------h--------p-s---]
[---h---4-6------h---4-6--4-6--6----6-6-4-4-6---4--6-4\3--]
[--3-5----------3-5---------------------------------------]
[---------------------------------------------------------]
[---------------------------------------------------------]
[---------------------------------------------------------]




03:55
[-------p--------------p------------|--s-----h-p-s------------------------s-]
[--8---9-8-6---8-9---11-9-8--9-8-6--|-6\8---8-9-8\6---8-9---11-9-8---9-8-6\-]
[-----------------------------------|---------------------------------------]
[-----------------------------------|---------------------------------------]
[-----------------------------------|---------------------------------------]
[-----------------------------------|---------------------------------------]




04:24                   h
[--------------11-10-8-8-10---------------------|---------------------------]
[---h--s-----8--------------8-8-8---b-rp-----br-|---h---8-9-8------------s--]
[--3-5-\---------------------------10---8--8----|--8-10-------10-8-7--7-8\--]
[-----------------------------------------------|---------------------------]
[-----------------------------------------------|---------------------------]
[-----------------------------------------------|---------------------------]

04:38          s               s            s               s  
[----s--8-10-11\-----s--8-10-11\----11-13-15\----s--11-13-15\--]
[--6-\-------------6-\--------------------------8-\------------]
[--------------------------------------------------------------]
[--------------------------------------------------------------]
[--------------------------------------------------------------]
[--------------------------------------------------------------]


[--15-15-16-13----15-16-13----11-10-10---10-11-10-10--]
[-----------------------------------------------------]
[-----------------------------------------------------]
[-----------------------------------------------------]
[-----------------------------------------------------]
[-----------------------------------------------------]



04:52     p                 p
[--15---16-15-13---15-16--18-16-15---16-15-13--]
[----------------------------------------------]
[----------------------------------------------]
[----------------------------------------------]
[----------------------------------------------]
[----------------------------------------------]

             p                 p                 s
[--13-15---16-15-13---15-16--18-16-15---16-15-13-\-]
[--------------------------------------------------]
[--------------------------------------------------]
[--------------------------------------------------]
[--------------------------------------------------]
[--------------------------------------------------]



05:21                          h                           h
[--------------s----18-17-15-15-17-----------|--13-11-10-10-11--------]
[------------13\--------------------15-15-15-|-----------------13-11--]
[-----h--s-----------------------------------|------------------------]
[--3-3-5-\-----------------------------------|------------------------]
[--------------------------------------------|------------------------]
[--------------------------------------------|------------------------]


[----h--h---13----------------------------]
[--13-15-16----16-15-15-16-15-13-------s--]
[--------------------------------15-14-\--]
[-----------------------------------------]
[-----------------------------------------]
[-----------------------------------------]




05:35
[-----s--15-17-18----17-18-20-18-17-18-20-17--------s---]
[--13-\--------------------------------------18-15--\---]
[-------------------------------------------------------]
[-------------------------------------------------------]
[-------------------------------------------------------]
[-------------------------------------------------------]


[-----s-----13-----15----18-17----18-17-----18-17-15-----------------------]
[--10-\--15-----15-------------15-------15------------18-16-15-13-------s--]
[-----------------------------------------------------------------15-14-\--]
[--------------------------------------------------------------------------]
[--------------------------------------------------------------------------]
[--------------------------------------------------------------------------]



05:50
[----------------------|--------------]
[------------p-----h---|-----------s--]
[--7--7--5--5-3---3-5--|--7--7--5--\--]
[---------------5------|--------------]
[----------------------|--------------]
[----------------------|--------------]


[---------------------------|-------------------]
[---------h-h----p-----h----|---------h-h-------]
[--7--7--0-3-5--5-3---3-5---|--7--7--0-3-5-hold-]
[-------------------5-------|-------------------]
[---------------------------|-------------------]
[---------------------------|-------------------]


From 06:15 I can;t seem to figure this out, 
if anyone can figure This Part Out I will Add it As Your Contribution. 
Thanks and hope you enjoy this great tune.

http://www.odyssice.com/
Tap to rate this tab
 
# A B C D E F G H I J K L M N O P Q R S T U V W X Y Z