Song name
# A B C D E F G H I J K L M N O P Q R S T U V W X Y Z

Oeil Pour Oeil - Pointeur tab

http://www.youtube.com/watch?v=tRFLLlWtFYM

----------------------------------------------------------------------

e|--------------------------------------------------------------|
B|--------------------------------------------------------------|
G|--------------------------------------------------------------|
D|-4---4-4-4---4---4---4-4-4---4---4---4-4-4---4---2------2-----|      A
A|-4---4-4-4---4---4---4-4-4---4---4---4-4-4---4---2------2-----|
E|-2---2-2-2---2---2---2-2-2---2---2---2-2-2---2---0------0-----|

e|---------------------------------------------------------------|
B|---------------------------------------------------------------|
G|---------------------------------------------------------------|
D|-4---4-4-4---4---4---4-4-4---4---4---4-4-4---4---2---2---2-----|     B
A|-4---4-4-4---4---4---4-4-4---4---4---4-4-4---4---2---2---2-----|
E|-2---2-2-2---2---2---2-2-2---2---2---2-2-2---2---0---0---0-----|

e|-----------------------------------------------------------|
B|-----------------------------------------------------------|
G|----------------2---2---2---------------------4------2-----|
D|-4---4---4------2---2---2------2---2---2------4------2-----|         C
A|-4---4---4------0---0---0------2---2---2------2------0-----|
E|-2---2---2---------------------0---0---0-------------------|

e|------------------------------------------------------------|
B|------------------------------------------------------------|
G|----------------2---2---2---------------------4---4---4-----|
D|-4---4---4------2---2---2------2---2---2------4---4---4-----|        D
A|-4---4---4------0---0---0------2---2---2------2---2---2-----|
E|-2---2---2---------------------0---0---0--------------------|

e|-----
B|-----
G|-----
D|-4---                                                               E
A|-4---
E|-2---

e|---------------------------------------------------------------|
B|---------------------------------------------------------------|
G|----------------2---2---2----------------------4---4---4-------|
D|-4------4---4-4-2---2---2---2------2---2---2-2-4---4---4---2-2-|     F
A|-4------4---4-4-0---0---0---2------2---2---2-2-2---2---2---2-2-|
E|-2------2---2-2-------------0------0---0---0-0-------------0-0-|
                                                             ... <- palm-mute



e|-------------------------------------------------------------|
B|-------------------------------------------------------------|
G|----------------2---2---2------------------------------------|
D|-4------4---4-4-2---2---2---2------2---2---2---2---2---2-----|       G
A|-4------4---4-4-0---0---0---2------2---2---2---2---2---2-----|
E|-2------2---2-2-------------0------0---0---0---0---0---0-----|
                                     .....................       <- palm-mute

e|----------------------------------------------------------------|
B|----------------------------------------------------------------|
G|---------------------------------------------------4------2-----|
D|-4---4-4------2---4---4-4------2---4---4-4---------4------2-----|    H
A|-4---4-4------2---4---4-4------2---4---4-4---------2------0-----|
E|-2---2-2------0---2---2-2------0---2---2-2----------------------|

e|-----------------------------------------------------------------|
B|-----------------------------------------------------------------|
G|-----------------------------------------------------------------|
D|-4---4-4------2---4---4-4------2---4---4-4---------2---2---2-----|   I
A|-4---4-4------2---4---4-4------2---4---4-4---------2---2---2-----|
E|-2---2-2------0---2---2-2------0---2---2-2---------0---0---0-----|

e|------------------------------------------------------------|
B|------------------------------------------------------------|
G|---------------------------2------2---2---2---2---2---2-----|
D|-4------4------2---2---2---2------2---2---2---2---2---2-----|        J
A|-4------4------2---2---2---0------0---0---0---0---0---0-----|
E|-2------2------0---0---0------------------------------------|

e|------------------------------------------------------------|
B|------------------------------------------------------------|
G|---------------------------4------4---4---4---4---4---4-----|
D|-4------4------2---2---2---4------4---4---4---4---4---4-----|        K
A|-4------4------2---2---2---2------2---2---2---2---2---2-----|
E|-2------2------0---0---0------------------------------------|


COMPOSITION :

(A + B) x 2
(C + D) x 2
(A + B) x 2
(C + D) x 2
E
(F + G) x 2
(H + I) x 2
(F + G) x 3
(J + K) x 2
H
E
Tap to rate this tab
# A B C D E F G H I J K L M N O P Q R S T U V W X Y Z