Song name
# A B C D E F G H I J K L M N O P Q R S T U V W X Y Z

Oeil Pour Oeil - Jos tab

http://www.youtube.com/watch?v=v1y8rA63cP8

--------------------------------------------------------------------

e|-------------------------------|
B|-------------------------------|
G|-------------6-----------------|
D|-----6-----6---------7-------4-|    A
A|---6-----4---------7-------4---|
E|-4---------------5-------2-----|

e|-------------------------------|
B|-------------------------------|
G|---------6-6-6-----------------|
D|-6-6-6---6-6-6---7-7-7---4-4-4-|    B
A|-6-6-6---4-4-4---7-7-7---4-4-4-|
E|-4-4-4-----------5-5-5---2-2-2-|

e|---------------------------------|
B|---------------------------------|
G|---------6-6-6-------------------|
D|-6-6-6---6-6-6---7-7-7---4-6\4/6-|  C
A|-6-6-6---4-4-4---7-7-7---4-6\4/6-|
E|-4-4-4-----------5-5-5---2-4\2/4-|

e|-------------------------------|
B|-------------------------------|
G|---------6-6-6-----------------|
D|-6-6-6---6-6-6---7-7-7---9---9-|   D
A|-6-6-6---4-4-4---7-7-7---9---9-|
E|-4-4-4-----------5-5-5---7---7-|

e|-------------------------------|
B|-------------------------------|
G|---------6-6-6-----------------|
D|-6-6-6---6-6-6---7-7-7---9-9-9-|   E
A|-6-6-6---4-4-4---7-7-7---9-9-9-|
E|-4-4-4-----------5-5-5---7-7-7-|

e|---------------------------------|
B|---------------------------------|
G|---------6-6-6-------------------|
D|-6-6-6---6-6-6---7-7-7---9\7/9---| F
A|-6-6-6---4-4-4---7-7-7---9\7/9---|
E|-4-4-4-----------5-5-5---7\5/7---|

e|-------------------------------|
B|-------------------------------|
G|---------6---------------------|
D|-6-6-6---6--7---9-9-9---4---4--|   G
A|-6-6-6---4--7---9-9-9---4---4--|
E|-4-4-4------5---7-7-7---2---2--|

e|-------------------------------|
B|-------------------------------|
G|---------6--------------7---7--|
D|-6-6-6---6--7---9-9-9---7---7--|   H
A|-6-6-6---4--7---9-9-9---5---5--|
E|-4-4-4------5---7-7-7----------|

e|------|
B|------|
G|------|
D|-6~~~-                            I
A|-6~~~-
E|-4~~~-


COMPOSITION :

INTRO
A x 4 (accélération progressive)
B x 2

COUPLET
B
C
B x 2
D x 2
E
F
E x 2

REFRAIN
(G + H) x 2

COUPLET

REFRAIN

FIN
I
Tap to rate this tab
# A B C D E F G H I J K L M N O P Q R S T U V W X Y Z