Song name
# A B C D E F G H I J K L M N O P Q R S T U V W X Y Z

Oeil Pour Oeil - Rock Anti Cailleras tab

http://www.youtube.com/watch?v=06sg8N8pVUA

--------------------------------------------------------------------------

e|---------------------------------------------------------|
B|---------------------------------------------------------|
G|--------------------9------8------8---8---8---8---8---8--|
D|-6------6---6---6---9------8------8---8---8---8---8---8--|      A
A|-6------6---6---6---7------6------6---6---6---6---6---6--|
E|-4------4---4---4----------------------------------------|
          .........                                        <- palm-mute

e|---------------------------------------------------------|
B|---------------------------------------------------------|
G|--------------------4------------------------------------|
D|-4------4---4---4---4------6------6---6---6---6---6---6--|     B
A|-4------4---4---4---2------6------6---6---6---6---6---6--|
E|-2------2---2---2----------4------4---4---4---4---4---4--|
                                    .....................  <- palm-mute

e|------------------------------------------------------|
B|------------------------------------------------------|
G|--------------------------------4---4-4------9---9-9--|
D|-6---6---6---4---6---6---6------4---4-4------9---9-9--|        C
A|-6---6---6---4---6---6---6------2---2-2------7---7-7--|
E|-4---4---4---2---4---4---4----------------------------|

e|------------------------------------------------------------|
B|------------------------------------------------------------|
G|--------------------------------4---4---4---4---4---4---4---|
D|-6---6---6---4---6---6---6------4---4---4---4---4---4---4---|    D
A|-6---6---6---4---6---6---6------2---2---2---2---2---2---2---|
E|-4---4---4---2---4---4---4----------------------------------|

e|---------------------------------------------------|
B|---------------------------------------------------|
G|-------------------------6---6---6------9---9---9--|
D|-6------4------6---------6---6---6------9---9---9--|     E
A|-6------4------6---------4---4---4------7---7---7--|
E|-4------2------4-----------------------------------|

e|---------------------------------------------------|
B|---------------------------------------------------|
G|-------------------------6---6---6------4---4---4--|
D|-6------4------6---------6---6---6------4---4---4--|     F
A|-6------4------6---------4---4---4------2---2---2--|
E|-4------2------4-----------------------------------|

e|---------------------------------------------------|
B|---------------------------------------------------|
G|-------------------------4---4---4------6---6---6--|
D|-6------4------6---------4---4---4------6---6---6--|     G
A|-6------4------6---------2---2---2------4---4---4--|
E|-4------2------4-----------------------------------|

e|---------------------------------------------------------|
B|---------------------------------------------------------|
G|---------------------------------------------------------|
D|-6------6-6-6---6---6------6-6-6---6---6------4---5---6--|     H
A|-6------6-6-6---6---6------6-6-6---6---6------4---5---6--|
E|-4------4-4-4---4---4------4-4-4---4---4------2---3---4--|


COMPOSITION :

(A + B) x 4
(C + D) x 2
(A + B) x 4
(C + D) x 2
E
F
E
G
H
Tap to rate this tab
# A B C D E F G H I J K L M N O P Q R S T U V W X Y Z