Song name
# A B C D E F G H I J K L M N O P Q R S T U V W X Y Z

Oeil Pour Oeil - Red Is Dead tab

http://www.dailymotion.com/video/x3v9jw

---------------------------------------------------------------------------

e|--------------------------------|
B|--------------------------------|
G|-------------------------7---7--|
D|---------4-2-------------7---7--|    A
A|-2---5-2-----5-2---2-2---5---5--|
E|--------------------------------|

e|--------------------------------|
B|--------------------------------|
G|-------------------------2---2--|
D|---------4-2-------------2---2--|    B
A|-2---5-2-----5-2---2-2---0---0--|
E|--------------------------------|

e|--------------------------------|
B|--------------------------------|
G|-4---4-4-4-4-4-4---4-4---7---7--|
D|-4---4-4-4-4-4-4---4-4---7---7--|    C
A|-2---2-2-2-2-2-2---2-2---5---5--|
E|--------------------------------|

e|--------------------------------|
B|--------------------------------|
G|-4---4-4-4-4-4-4---4-4---2---2--|
D|-4---4-4-4-4-4-4---4-4---2---2--|    D
A|-2---2-2-2-2-2-2---2-2---0---0--|
E|--------------------------------|

e|------------------------------|
B|------------------------------|
G|-4---4-4-4-4-4-4-7---7---7-7--|
D|-4---4-4-4-4-4-4-7---7---7-7--|      E
A|-2---2-2-2-2-2-2-5---5---5-5--|
E|------------------------------|
       ...........              <- palm-mute

e|------------------------------|
B|------------------------------|
G|-----------------7---7---7-7--|
D|-2---2-2-2-2-2-2-7---7---7-7--|      F
A|-2---2-2-2-2-2-2-5---5---5-5--|
E|-0---0-0-0-0-0-0--------------|
       ...........              <- palm-mute

e|--------------------------------|
B|--------------------------------|
G|-4---4-4---4-4---7---4---7---4--|
D|-4---4-4---4-4---7---4---7---4--|    G
A|-2---2-2---2-2---5---2---5---2--|
E|--------------------------------|

e|-------------------------------|
B|-------------------------------|
G|-----------------7---4---7-----|
D|-2---2-2---2-2---7---4---7-----|     H
A|-2---2-2---2-2---5---2---5-----|
E|-0---0-0---0-0-----------------|

e|----------------------------|
B|----------------------------|
G|-4---4---4-4---7---7---7-7--|
D|-4---4---4-4---7---7---7-7--|        I
A|-2---2---2-2---5---5---5-5--|
E|----------------------------|

e|--------------------------|
B|--------------------------|
G|-----------------------7--|
D|-2---2---2-2---4---7---7--|          J
A|-2---2---2-2---4---7---5--|
E|-0---0---0-0---2---5------|

e|---------|
B|---------|
G|-4~~~~---|
D|-4~~~~---|                           K
A|-2~~~~---|
E|---------|


COMPOSITION :

(A + B) x 2
(C + D) x 4
(E + F) x 2
(A + B) x 2
(C + D) x 2
(E + F) x 2
(G + H) x 2
(I + J) x 2
(E + F) x 2
(A + B) x 2
(C + D) x 2
(E + F) x 2
(G + H) x 6
K
Tap to rate this tab
# A B C D E F G H I J K L M N O P Q R S T U V W X Y Z