Song name
# A B C D E F G H I J K L M N O P Q R S T U V W X Y Z

Oeil Pour Oeil - Escalier tab

http://www.youtube.com/watch?v=pgUXN6icL3I

-----------------------------------------------------------------------

GUITARE 1 (couplets) :

e|--------------------------------|
B|--------------------------------|
G|--------------------------------|
D|-4---6p4---4h6---2---4p2---2h4--|
A|--------------------------------|
E|--------------------------------|

e|--------------------------------|
B|--------------------------------|
G|-4---6p4---4h6---4---6p4---4h6--|
D|--------------------------------|
A|--------------------------------|
E|--------------------------------|


GUITARE 2 (toute la chanson) :

e|--------------------------------|
B|--------------------------------|
G|-4---4-4---4-4---2---2-2---2-2--|
D|-4---4-4---4-4---2---2-2---2-2--|
A|-2---2-2---2-2---0---0-0---0-0--|
E|--------------------------------|

e|--------------------------------|
B|--------------------------------|
G|--------------------------------|
D|-2---2-2---2-2---2---2-2---2-2--|
A|-2---2-2---2-2---2---2-2---2-2--|
E|-0---0-0---0-0---0---0-0---0-0--|


SOLO GUITARE 1 :

e|--------------------------------10---7h10p7---14-12---10---7---10-7---7-10-|
B|-0---3-5-6---7-10---7-10-7-10-7--------------------------------------------|
G|---------------------------------------------------------------------------|
D|---------------------------------------------------------------------------|
A|---------------------------------------------------------------------------|
E|---------------------------------------------------------------------------|


e|---------------------12---10-12---10-12---/14---12---14--12---10---7------|
B|-5-6-7-10---10h12p10------------------------------------------------------|
G|--------------------------------------------------------------------------|
D|--------------------------------------------------------------------------|
A|--------------------------------------------------------------------------|
E|--------------------------------------------------------------------------|

e|-10---7-10---7-10-7-------------------------------------------------------|
B|--------------------10---7-10---7-10---5-6-7-10---12---10---12-10---10-12-|
G|--------------------------------------------------------------------------|
D|--------------------------------------------------------------------------|
A|--------------------------------------------------------------------------|
E|--------------------------------------------------------------------------|


e|-10---12---10-------10----------------------------------------------------|
B|---------------12--------12--15p10--7--6--5--3---5-3---5-3\---------------|
G|--------------------------------------------------------------------------|
D|--------------------------------------------------------------------------|
A|--------------------------------------------------------------------------|
E|--------------------------------------------------------------------------|
Tap to rate this tab
 
# A B C D E F G H I J K L M N O P Q R S T U V W X Y Z