Song name
# A B C D E F G H I J K L M N O P Q R S T U V W X Y Z

Of Machines - Things Too Visible To See tab

Help us improve GuitareTab! Take a short survey!
Hey Guys, I just have to say i think this band is pretty cool and to see no tabs is 
So i am tabbing this out for anyone who wants it. Thanks Guys. Keep Rockin. It's Relatively easy.

Link to Sites:http://www.myspace.com/ofmachinestheband
http://www.metalunderground.com/news/details.cfm?newsid=40221

Follow this or you will not get the tab(Plus it helps to listen to song :).

Intro 0:00-0:31
Chorus 0:32-1:21
Breakdown 1:22-1:44
Chorus 1:45-2:42
Outro 2:43-3:06

Intro (Both Guitars)(0:00-0:19)
E|Feedback----------------------|  |(4th Time)----------------------|
B|(0:00-0:03)-------------------|  |----------(Strum these 4x each--|
G|------------------------101010|X3|-----------10/12/14/17----------|
D|-------------------000-0-x-x-x|  |-------000-x-/x-/x-/x-----------|
A|-------------------000-0-8-8-8|  |-------000-8-/10/12/15----------|
D|------------000-8~-000-0------|  |000-8--000----------------------|

Intro(Cont.)(0:20-0:31)
E|-----------------|    |-------------------------|    |-----|
B|-----------------|    |-------------------------|    |-----|
G|(Slide)----------|    |-------------------------|    |-----|
D|12/////0-0-0-8-0-|(x1)|-0-0-0-0-0-0-0-0--0-0-0-8|(x2)|0-0-0|
A|12/////0-0-0-8-0-|    |-0-0-0-0-0-0-0-0--0-0-0-8|    |0-0-0|
D|12/////0-0-0-8-0-|    |-0-0-0-0-0-0-0-0--0-0-0-8|    |0-0-0|

Chorus (Guitar 1)(0:32-1:21)
E|----------------------------------|
B|----------------------------------|
G|10-----12------7------9-----10----|
D|x-(x16)x--(x16)x-(x16)x-(x8)x-(x8)|(x4)
A|8------10------5------7-----8-----|
D|----------------------------------|

Chorus (Guitar 2)(0:32-1:21)
E|-------------------------|
G|-------------------------|
B|-------------------------|
D|8-----10-----0-----3-----|
A|8(x16)10(x16)0(x16)3(x16)|
D|8-----10-----0-----3-----|


Breakdown (Guitar 1)(1:22-1:44) Weird Pattern so here are notes. not sure about pattern 
ONS AND PULL OFFS
E|10p0 couple of times 12p0 and 13p0 Couple times Listen song to understand)|
B|--------------------------------------------------------------------------|
G|--------------------------------------------------------------------------|
D|--------------------------------------------------------------------------|
A|--------------------------------------------------------------------------|
D|--------------------------------------------------------------------------|

Breakdown (Guitar 2)(1:22-1:44)
E|--------------|       |-------|           E|--------------|
B|--------------|       |-------|           B|--------------|
G|--------------|       |(Slide)|           G|--------------|
D|0-0-----0-0-00|(X2)   |12/////|Then again D|0-0-----0-0-00|(X2)
A|0-0-----0-0-00|Then-->|12/////|           A|0-0-----0-0-00|
D|0-0-----0-0-00|       |12/////|           D|0-0-----0-0-00|

Chorus (Guitar 1)(1:45-2:42)
E|----------------------------------|
B|----------------------------------|
G|10-----12------7------9-----10----|
D|x-(x16)x--(x16)x-(x16)x-(x8)x-(x8)|(x5)
A|8------10------5------7-----8-----|
D|----------------------------------|

Chorus (Guitar 2)(1:45-2:42)
E|-------------------------|
B|-------------------------|
G|-------------------------|
D|8-----10-----0-----3-----|(x5)
A|8(x16)10(x16)0(x16)3(x16)|
D|8-----10-----0-----3-----|

Outro (Guitar 1)(2:43-3:06)
E|10p0-(x30-Then 10~~|
B|-------------------|
G|-------------------|
D|-------------------|
A|-------------------|
D|-------------------|

Outro (Guitar 2)(2:43-3:06)
E|---------|                               E|---|
B|---------|                               B|---|
G|---------|                               G|---|
D|0-0--0-0-|(x4)(Listen to song 4 pattern) D|0~~|
A|0-0--0-0-|                               A|0~~|
D|0-0--0-0-|                               D|0~~|
Related for Things Too Visible To See tab