Of Machines - It Must Belong Somewhere tab

Band: Of Machines
Song: It Must Belong Somewhere
Tuning: Drop D

Key:
*=Palm Mute
/=Slide Up
\=Slide Down
~=Ring Out
h=Hammer On
p=Pull Off
TR=Tremelo Picking



Intro:

|-------------------------------------------------------------------------|
|-------------------------------------------------------------------------|
|-9------6---------/-14-----16--------------------------------------------|Repeat x2
|-x--x16-x-x16-----/-x--x8--x--x8------00-0~-0-000-00-0~-000~-------------|
|-7------4---------/-12-----14---------00-0~-0-000-00-0~-000~-x2-last-time|
|--------------------------------------00-0~-0-000-00-0~-000~-------------|
                                       ** *  * *** ** *  **
|-------------------------------------------------------------------------|
|-------------------------------------------------------------------------|
|-9------6-----6----/-14-----16-------------------------------------------|Repeat x2
|-7------4-----x-x8-/-x--x8--x--x8-----00-0~-0-000-00-0~-000~-------------|
|-7-x16--4-x8--4----/-12-----14--------00-0~-0-000-00-0~-000~-x2-last-time|
|-7------4-----------------------------00-0~-0-000-00-0~-000~-------------|
                                       ** *  * *** ** *  **
Verse:

|-------------------------------------------------------------------------|
|-------------------------------------------------------------------------|
|-9h8-----------------------TR-8-TR-9-TR-8-TR-11-TR-8-TR-9-13-12-12~------|
|-----9/11------9-----x4--------------------------------------------------|
|----------9-11---11------------------------------------------------------|
|-------------------------------------------------------------------------|

|-------------------------------------------------------------------------|
|-------------------------------------------------------------------------|
|-------------------------------------------------------------------------|Repeat x2
|-777777--777777--444444--0~----------------------------------------------|
|-777777--777777--444444--0~----------------------------------------------|
|-777777--777777--444444--0~----------------------------------------------|
  ******  ******  ******

Pre Chorus:

|-14----------------14-------17-------------------------------------------|
|----12h14-14~---------12h14----14-12-10-9~---10\-------------------------|
|-------------------------------------------------------------------------|
|-------------------------------------------------------------------------|
|-------------------------------------------------------------------------|
|-------------------------------------------------------------------------|

|---------------------|
|---------------------|
|-6~--6~--2~--2~------|
|-4~--4~--0~--0~------|
|-4~--4~--0~--0~------|
|-4~--4~--0~--0~------|

Chorus:

|---------------------------------------------------------------------------|
|---------------------------------------------------------------------------|
|------------------------------------14141414-13131313/19-1818181818--------|
|-xx---------------------Elevens-v------------------------------------------|
|-xx-7~---99999999---12-111111111111----------------------------------------|
|-xx------------------------------------------------------------------------|

|-----------------------|              |-----------------------|
|-----------------------|              |-----------------------|
|-2~-----6~-----6~------| Second Time: |-2~-----6~-----9~------|
|-0~-----4~-----4~------|              |-0~-----4~-----7~------|
|-0~-x64-4~-x32-4~-x32--|              |-0~-x64-4~-x32-7~-x32--|
|-0~-----4~-----4~------|              |-0~-----4~-----7~------|


Verse Two?:

|-14----------------------------14----------14/17-------------------------|
|----12-------12-------------------12-------------14-12-------------------|
|-------13-14----13-14-13--x3---------13-14-------------13~---------------|
|-------------------------------------------------------------------------|
|-------------------------------------------------------------------------|
|-------------------------------------------------------------------------|

|-------------------------------------------------------------------------|
|-------------------------------------------------------------------------|
|-2~---2------6~---6-----------2~---2------6~---4------2~-----------------|
|-0~---0------4~---4------9\---0~---0------4~---4------0~-----------------|
|-0~---0------4~---4------9\---0~---0------4~---4------0~-----------------|
|-0~---0------4~---4------9\---0~---0------4~---4------0~-----------------|

Bridge:

|-------------------------------------------------------------------------------|Last little|
|-------------------------------------------------------------------------------|----part---|
|-13~-14~-16~-11~----9----------9-----------------9----------9------------------|-----------|
|----------------------7-9--------7-9------7/9------7-9--------7-9----7/12-11\9~|-19-17-19--|
|--------------------------9-9~-------9~-9-----9~-------9-9~-------9~-----------|-----------|
|-------------------------------------------------------------------------------|-----------|
|-------------------------------------------------|
|------I play this part by letting----------------|
|-2~----the first chord ring all the -------~2-2~-|
|-0~-----way out, then I like to fade-------~0-0~-|
|-0~------in the same chord when the -------~0-0~-|
|-0~-------double bass comes in.------------~0-0~-|

Chorus:

|---------------------------------------------------------------------------|
|---------------------------------------------------------------------------|
|------------------------------------14141414-13131313/19-1818181818--------|
|-xx---------------------Elevens-v------------------------------------------|
|-xx-7~---99999999---12-111111111111----------------------------------------|
|-xx------------------------------------------------------------------------|



|-----------------------|              |-----------------------|
|-----------------------|              |-----------------------|
|-2~-----6~-----6~------| Second Time: |-2~-----6~-----9~------|
|-0~-----4~-----4~------|              |-0~-----4~-----7~------|
|-0~-x64-4~-x32-4~-x32--|              |-0~-x64-4~-x32-7~-x32--|
|-0~-----4~-----4~------|              |-0~-----4~-----7~------|

When chorus changes:

|---------------------------------------------------------------------------|
|---------------------------------------------------------------------------|
|------------------18------23-----------------------------------------------|
|------------------x--x16--x--x16-------------------------------------------|
|-TR-9-TR-12-TR-11-16------21-----------------------------------------------|
|---------------------------------------------------------------------------|

|-----------------------|              |-----------------------|
|-----------------------|              |-----------------------|
|-2~-----6~-----6~------| Second Time: |-2~-----6~-----9~------|
|-0~-----4~-----4~------|              |-0~-----4~-----7~------|
|-0~-x64-4~-x32-4~-x32--|              |-0~-x64-4~-x32-7~-x32--|
|-0~-----4~-----4~------|              |-0~-----4~-----7~------|
Outro:

|---------------------|
|---------------------|
|-14-14~-13-13~-10-10~|Repeat x2
|---------------------|
|---------------------|
|---------------------|

|---------------------|
|---------------------|
|-2~------------------|
|-0~------------------|
|-0~------------------|
|-0~------------------|
Tap to rate this tab
 
# A B C D E F G H I J K L M N O P Q R S T U V W X Y Z