Song name
# A B C D E F G H I J K L M N O P Q R S T U V W X Y Z

Of Machines - Things Too Visible To See tab

Of Machines - Things Too Visible To See
Tuning - DADGBE
http://www.youtube.com/watch?v=0r_VmAHuB74
t - tapping(before) or tremelo(after)
p - pull off
h - hammer on
s - slide
. - palm mute

Guitar 1
E|----------------------|
B|----------------------|
G|---------10-10-10-10--|
D|---------x--x--x--x---| x6
A|-0-0-8-0-8--8--8--8---|
D|-0-0-8-0--------------|

Guitar 2 (wait 2 times)
E|----------------------|
B|----------------------|
G|---------12-12-12-12--|
D|---------x--x--x--x---|
A|-0-0-8-0-10-10-10-10--|
D|-0-0-8-0--------------| \
                          x2
E|----------------------| /
B|----------------------|
G|---------14-14-14-14--|
D|---------x--x--x--x---|
A|-0-0-8-0-12-12-12-12--|
D|-0-0-8-0--------------|

Guitar 1
E|----
B|----
G|-10-
D|-x-- x16
A|-8--
D|----

Guitar 2
E|----     E|----|
B|----     B|----|
G|-19-     G|-21-|
D|-x-- x8  D|-x--| X8
A|-17-     A|-19-|
D|----     D|----|

Both Guitars
E|--------------|
B|--------------|
G|--------------|
D|--------------| x4
A|-15-8-00-0-00-|
D|-15-8-00-0-00-|
        .. . ..

Guitar 1 (guitar 2 plays last riff 2 more times)
E|---      E|----|
B|---      B|----|
G|-9-      G|-12-|
D|-x- x16  D|-x--| X16
A|-8-      A|-10-|
D|---      D|----|

Guitar 1
E|-----------------------------------|
B|-----------------------------------|
G|-----------------------------------|
D|-----------------------------------| x2
A|-8--x16--10--x16--0--x16--3--x16---|
D|-8-------10-------0-------3--------|
                    .       .
Guitar 2
E|---------12-------------------------------------------|
B|-8-11-10----11-10-8-11-10-----------------------------|
G|--------------------------9^------9---------10--------|
D|------------------------------5-7---x5--7-8----x5-----|
A|------------------------------------------------------|
D|------------------------------------------------------|

(tremelo)
E|----------------------  E|----------------------|
B|----------------------  B|-----------10t--15t---|
G|-10t--12t--7t--5t-3t--  G|-10t--12t-------------|
D|----------------------  D|----------------------|
A|----------------------  A|----------------------|
D|----------------------  D|----------------------|

GUitar 1
E|----------|
B|----------|
G|----------|
D|----------| x8
A|-0--0-00--|
D|-0--0-00--|
   .  . ..

Guitar 2(tapping)
E|---------------------------------------------|
B|-t11p5h6-t10p5h6-t11p5h6-t10p5h6-t15s17p5h6--|
G|---------------------------------------------|
D|---------------------------------------------| x4
A|---------------------------------------------|
D|---------------------------------------------|

E|---------------------------------------------|
B|-t17p6h8-t15p6h8-t18p6h8-t17p6h8-t15s17p6h8--|
G|---------------------------------------------|
D|---------------------------------------------| x4
A|---------------------------------------------|
D|---------------------------------------------|

Guitar 1 (tremelo)
E|----------------------  E|----------------------|
B|----------------------  B|-----------10t--15t---|
G|-10t--12t--7t--5t-3t--  G|-10t--12t-------------|
D|----------------------  D|----------------------|
A|----------------------  A|----------------------|
D|----------------------  D|----------------------|

Guitar 2 (comes in after guitar 1)
E|-------------------------------|
B|-------------------------------|
G|-9p0-5p0------9p0-5p0----------|
D|---------5h7----------5h7-5h7--| x2
A|-------------------------------|
D|-------------------------------|

Guitar 1
E|-----------------------------------|
B|-----------------------------------|
G|-----------------------------------|
D|-----------------------------------| x2
A|-8--x16--10--x16--0--x16--3--x16---|
D|-8-------10-------0-------3--------|

Guitar 2
E|---------------------------------------|
B|---------------------------------------|
G|-10------9------15------14-----12------|
D|----x16----x16-----x16-----x8-----x8---| x2
A|-8-------7------13------12-----10------|
D|---------------------------------------|

Guitar 1
E|--------|
B|--------|
G|--------|
D|--------| x4
A|-00-00--|
D|-00-00--|
   .. ..

Guitar 2 (tapping)
E|------------|
B|-t15p6h8p6--|
G|------------|
D|------------| x16
A|------------|
D|------------|

End on
E|--------------------|
B|-t15p6-t15p6-t15^---|
G|--------------------|
D|--------------------|
A|--------------------|
D|--------------------|

i hope it's not too confusing....
Tap to rate this tab
 
# A B C D E F G H I J K L M N O P Q R S T U V W X Y Z