Song name
# A B C D E F G H I J K L M N O P Q R S T U V W X Y Z

Of Mice And Men - Second And Sebring tab

Of Mice & Men
Second & Sebring

Tabbed by Adrian: email afonda95051@gmail.com


d#|---------------------------------------------------------|
A#|---------------------------------------------------------|
F#|---------10-----------------14------14\12----------------|
C#|-0-00-----x(x12)----0-00-----x(x12)--x\-x---8------7-----|(x2)
G#|-0-00-----8---------0-00----12------12\10---8(x12)-7(x12)|
C#|-0-00---------------0-00--------------------8------7-----|
      **                  *                    ^      ^
             listen for strumming pattern------^------^

d#|-------------------|
A#|-------------------|
F#|-------------------|
C#|--0~-----8~--7~\---|
G#|--0~-----8~--7~\---|
C#|--0~-----8~--7~\---|


d#|---------------------------------------------------------|
A#|---------------------------------------------------------|
F#|---------10----------------14----------------------------|
C#|-0~00-----x(x12)---0~00-----x(x12)--8------7------10-----|(x2)
G#|-0~00-----8--------0~00----12-------8(x12)-7(x6)--10(x6)-|
C#|-0~00--------------0~00-------------8------7------10-----|
    * *               * *

Sweet Breakdown
d#|----------------------------|
A#|----------------------------|
F#|----------------------------|
C#|----------------------------|(x2)
G#|----------------------------|
C#|-0000-0000--0-0--0000-0000--|

then
d#|----------------------------|
A#|----------------------------|
F#|----------------------------|
C#|-0000~0000~~0~0~~0000~0000~-|(x2)
G#|-0000~0000~~0~0~~0000~0000~-|
C#|-0000~0000~~0~0~~0000~0000~-|
    **** ****  * *  **** ****


d#|------------------------------------------------------------------------|
A#|------------------------------------------------------------------------|
F#|------------------------------------------------------------------------|
C#|-8888~-8888~--8~-8~--8888~-8888~-7777~-7777~-7~-7~--10101010~-10101010~-|
G#|-8888~-8888~--8~-8~--8888~-8888~-7777~-7777~-7~-7~--10101010~-10101010~-|
C#|-8888~-8888~--8~-8~--8888~-8888~-7777~-7777~-7~-7~--10101010~-10101010~-|
    ****  ****   *  *   ****  ****  **** ****   *  *   * * * *   * * * *


d#|-----------------------------------------|
A#|-----------------------------------------|
F#|-----------------------------------------|
C#|-0~--78~--5~------------0~--78~--5~7\----|
G#|-0~--78~--5~--8-7-5-0~--0~--78~--5~7\----|
C#|-0~--78~--5~--8-7-5-0~--0~--78~--5~7\----|
                                                    \End each with/
                                                     \           /
                                                (First 3)     _Last (4th)
d#|-------------------------------------|      |---------|  |----------|
A#|-------------------------------------|      |---------|  |----------|
F#|-------------------------------------|(x4)  |---------|  |----------|
C#|-0-------------------788-----755-----|      |---------|  |----------|
G#|-0------0------0-----788-----755-----|      |-8-7-5-0-|  |--8--7--5-|
C#|-0-0000-0-0000-0-000-788-888-755-555-|      |-8-7-5-0-|  |----------|
      ****   ****  ***      ***     ***                            (x2)


Another Sweet Breakdown
d#|--------------------------------|
A#|--------------------------------|
F#|--------------------------------|
C#|-0~0~--0~0~0~--0~0~0~--0~0--00--|(x2)
G#|-0~0~--0~0~0~--0~0~0~--0~0--00--|
C#|-0~0~--0~0~0~--0~0~0~--0~0--00--|
    * *   * * *   * * *   * *  **

                                             /End each with\
                                            /               \
then                                        (1st)       (2nd)
d#|----------|-----------------------|     |----|     |--------|
A#|----------|-----------------------|     |----|     |--------|
F#|----------|-----------------------|     |----|     |--------|
C#|----------|-----------------------|(x2) |-00-|     |--------|
G#|----------|-----------------------|     |-00-|     |--8-7-5-|
C#|-0-0-000--|-0-0-000-0-000-0-000---|     |-00-|     |--------|
       ^                                     **
       ^(only first time)


d#|--------------------------------|
A#|--------------------------------|
F#|--------------------------------|
C#|-0~0~--0~0~0~--0~0~0~--0~0--00--|(x2)
G#|-0~0~--0~0~0~--0~0~0~--0~0--00--|
C#|-0~0~--0~0~0~--0~0~0~--0~0--00--|
    * *   * * *   * * *   * *  **


d#|--------------------------------------------------|
A#|--------------------------------------------------|
F#|---10--------12--------10--------12-------17------|
C#|----x(x16)----x(x16)----x(x16)----x(x8)----x(x8)--|
G#|----8--------10---------8--------10-------15------|
C#|--------------------------------------------------|


d#|--------------------------------|
A#|--------------------------------|
F#|--------------------------------|
C#|-0-------8------3------10-------|(x3)
G#|-0(x8)---8(x8)--3(x8)--10(x8)---|
C#|-0-------8------3------10-------|

                                    End with
d#|----------------------|      |--------------------|
A#|----------------------|      |--------------------|
F#|----------------------|      |--------------------|
C#|-0~~---8~~--3~~--10~~-|(x2)  |-------0~-----------|
G#|-0~~---8~~--3~~--10~~-|      |--7h8^-0~(fade out)-|
C#|-0~~---8~~--3~~--10~~-|      |----|--0~-----------|
     (Strum lightly)                 |
                          (slight bend about 1/4 step)


Let me know what you think.....btw this was my first tab. Go ahead and leave any 
you have for me.

| *  Palm Mute
| /  slide up
| \  slide down
| h  hammer-on
| p  pull-off
| ~  sustain
| +  harmonic
| x  Mute note
Tap to rate this tab
# A B C D E F G H I J K L M N O P Q R S T U V W X Y Z