Guitaretab - guitar tabs
Song name
# A B C D E F G H I J K L M N O P Q R S T U V W X Y Z

Of Mice And Men - Those In Glass Houses tab

Tabbed by: Steven
Email: Stevesmithjr1989@yahoo.com

My first tab. This song is really underrated.

Tuning: Drop C

e|-------------------------------------------------------------|
B|-----------------------------5-------------------------------|
G|-----------2--------------2---------------2------------------|
D|---------3-------------3---------------3---------------------|
A|---------------------------------------------------00001111--|
E|-0-000-------0-000----------0-000----------------------------|



e|--------------------------------------------------|
B|--------------------------------------------------|
G|--------------------------------------------------|
D|000000000000000055555555555555558888888888888888--| x2
A|000000000000000055555555555555558888888888888888--|
E|000000000000000055555555555555558888888888888888--|

[ Tab from: http://www.guitaretab.com/o/of-mice-and-men/282336.html ]
e|-----------------------------------------------------------------------------|
B|------------------------------5----------------------------------------------|
G|------------2--------------2-------------------------------------------------|
D|---------3--------------3----------------------------------------------------|
A|-----------------------------------------------------------------------------|
E|-0-000--------0-000----------------------------------------------------------|



e|-----------------------------------------------------------------|
B|----------------------------------------------10----------10--10-|
G|-----------------------------------------------------------------|
D|----------------------------------------------14----------14--14-|
A|-----------------------------------------------------------------|
E|-00--00000-00--00--00000-0-0----0-0---------0-0-------------0-0--|

-------------------------------------------------------|
--------10----------10---------------------------5-----|
----------------------------------------2-----------2--|
--------14----------14-----------3-----------3---------|
-------------------------------------------------------|
----0-0-0--------0--000-----0--000---------------------|



************************************

| /   slide up
| \   slide down
| h   hammer-on
| p   pull-off
| ~   vibrato
| +   harmonic
| x   Mute note
| b   Bend
| pb  Pre-bend
| br  Bend release
| pbr Pre-bend release
| brb Bend release bend

************************************
Related for Those In Glass Houses tab
Those In Glass Houses chords by Of Mice And Men