Song name
# A B C D E F G H I J K L M N O P Q R S T U V W X Y Z

Of Mice And Men - My Understandings tab

I learnt this song by ear. I still have yet to figure out the riff from
0:17 to 0:39. Just guessing but it probably a different strumming of the
 other chords in the song. Tabs by Christian Tyler Gorman. Enjoy! :]


D------12*--|
A------12*--|
F-----------|
C-----------|
G-----------|
C-----------|

D----10h12p10--|
A--12----------|
F--------------|
C--------------|
G--------------|
C--------------|

D-------------------------------------------------------------------------|
A-------------------------------------------------------------------------|
F--4-4-4-4-4-4-4-4-12-12-12-12-12-12-------7-7-7-7-7-7-7-7-9-9-9-9-9-9-5--|
C--2-2-2-2-2-2-2-2-10-10-10-10-10-10-12-12-5-5-5-5-5-5-5-5-9-9-9-9-9-9-3--|
G--2-2-2-2-2-2-2-2-10-10-10-10-10-10-12-12-5-5-5-5-5-5-5-5-7-7-7-7-7-7-3--|
C--2-2-2-2-2-2-2-2-10-10-10-10-10-10-12-12-5-5-5-5-5-5-5-5-7-7-7-7-7-7-3--|
Tap to rate this tab
 
# A B C D E F G H I J K L M N O P Q R S T U V W X Y Z