Of Mice And Men - Let Live tab

This my first Tab so please go easy. please email me any changes to this to make it 
right. meverson8@gmail.com Enjoy

Let Live
Of Mice & Men
The flood (2011)

Intro
I was all for you...
e|----------------------------------------|
B|----------------------------------------|
G|----------------------------------------|
D|-00000000000000000000555555555555555555-|
A|-00000000000000000000555555555555555555-|X2
E|-00000000000000000000888888888888888888-|
P.M --------------------------------------|


e|----------------------------------------|
B|----------------------------------------|
G|----------------------------------------|
D|-00000000000000000000055555555555555555-|X2
A|-00000000000000000000055555555555555555-|
E|-00000000000000000000088888888888888888-|

e|---------0~---------0~------------0~-----------0~------|
B|-----------6~----------6~-------------6~----------6~---|
G|-------7~--------7~------------7~------------7~--------|(let all ring)
D|-------------------------------------------------------|
A|-------------------------------------------------------|
E|-------------------------------------------------------|

Verse 1
e|----------------------------|    e|----------------------------|
B|----------------------------|    B|----------------------------|
G|----------------------------|    G|----------------------------|
D|----------------------------|X3  D|----------------------------|
A|---5—-7—-8—-5--7--8-—3-—3---|    A|---5--7--8----5--7-7-5------|
E|-0---0--0-----0--0--0-------|    E|-0--0---0----0--0-----------|


e|----------------------------|    e|----------------------------|
B|----------------------------|    B|----------------------------|
G|----------------------------|    G|----------------------------|
D|---3---5--7--3--5--7—2-2----|X3  D|---3---5--7----3---5-5--3---|
A|----------------------------|    A|----------------------------|
E|-0---0--0-----0--0--0-------|    E|-0---0--0-----0--0----------|

Pre Chorus
                                              1st Ending      2nd Ending
e|-----------------------------------------|--------------|-------------|
B|-----------------------------------------|--------------|-------------|
G|-----------------------------------------|--------------|-------------|
D|-----0~~~--------------------5~~~--------|---0~~~-------|-000-000-000-|
A|-----0~~~--------------------5~~~--------|---0~~~-------|-000-000-000-|
E|-----0~~~--------------------8~~~--------|---0~~~-------|-000-000-000-|




CHORUS

e|----------------------------------------|
B|----------------------------------------|
G|----------------------------------------|
D|-00000000000000000000055555555555555555-|X4
A|-00000000000000000000055555555555555555-|
E|-00000000000000000000088888888888888888-|

Post-Chorus

e|-------------------------------------------------------------------|
B|-------------------------------------------------------------------|
G|-------------------------------------------------------------------|
D|--0-00-00--------0-00-00-------------0-00-00-------0-00-00---------|
A|--0-00-00--7733--0-00-00--7733-------0-00-00--7733-0-00-00--7733---|
E|--0-00-00--------0-00-00-------------0-00-00-------0-00-00---------|

e|-------------------------------------------------------------------|
B|-------------------------------------------------------------------|
G|-------------------------------------------------------------------|
D|--0-00-00--------0-00-00----------0-00-00----------0-00-00---------|
A|--0-00-00--7733--0-00-00--7733----0-00-00--7733----0-00-00--7733---|
E|--0-00-00--------0-00-00----------0-00-00----------0-00-00---------|

e|------------------------------------|
B|------------------------------------|
G|------------------------------------|
D|----8~~------------5~~--------------|
A|----8~~------------5~~--------------|
E|----8~~------------5~~--------------|


 Verse 2
e|----------------------------|    e|----------------------------|
B|----------------------------|    B|----------------------------|
G|----------------------------|    G|----------------------------|
D|----------------------------|X3  D|----------------------------|
A|---5—-7—-8—-5--7--8-—3-—3---|    A|---5--7--8----5--7-7-5------|
E|-0---0--0-----0--0--0-------|    E|-0--0---0----0--0-----------|

e|----------------------------|    e|----------------------------|
B|----------------------------|    B|----------------------------|
G|----------------------------|    G|----------------------------|
D|---3---5--7--3--5--7—2-2----|X3  D|---3---5--7----3---5-5--3---|
A|----------------------------|    A|----------------------------|
E|-0---0--0-----0--0--0-------|    E|-0---0--0-----0--0----------|


                                               1st Ending     2nd Ending
e|-----------------------------------------|--------------|-------------|
B|-----------------------------------------|--------------|-------------|
G|-----------------------------------------|--------------|-------------|
D|-----0~~~--------------------5~~~--------|---0~~~-------|-000-000-000-|
A|-----0~~~--------------------5~~~--------|---0~~~-------|-000-000-000-|
E|-----0~~~--------------------8~~~--------|---0~~~-------|-000-000-000-|


Chorus
e|----------------------------------------|
B|----------------------------------------|
G|----------------------------------------|
D|-00000000000000000000055555555555555555-|X4
A|-00000000000000000000055555555555555555-|
E|-00000000000000000000088888888888888888-|


e|-----------------------|
B|-----------------------|
G|-----------------------|
D|-00-00-00-00-000-000---|X2
A|-00-00-00-00-000-000---|
E|-00-00-00-00-000-000---|


e|----------------------------|   |----------|
B|----------------------------|   |----------|
G|----------------------------|   |----------|
D|-------------------00-00----|X2 |-0~~------|
A|-------------------00-00----|   |-0~~------|
E|-00-00-000-000-000-00-00----|   |-0~~------|

Don’t know this part sorry :(

Last Chorus:
e|----------------------------------------|
B|----------------------------------------|
G|----------------------------------------|
D|-00000000000000000000055555555555555555-|X4
A|-00000000000000000000055555555555555555-|
E|-00000000000000000000088888888888888888-|

Outro:
e|---------0~---------0~------------0~-----------0~------|
B|-----------6~----------6~-------------6~----------6~---|
G|-------7~--------7~------------7~------------7~--------|(let all ring)
D|-------------------------------------------------------|
A|-------------------------------------------------------|
E|-------------------------------------------------------|
Tap to rate this tab
 
# A B C D E F G H I J K L M N O P Q R S T U V W X Y Z