Song name
# A B C D E F G H I J K L M N O P Q R S T U V W X Y Z

Of Mice And Men - Ydg tab

Drop C#


Intro

|----------------------------------------------------|
|----------------------------------------------------|
|---9-9-9-9---- 9-9-9-9---------9-9-9-9--------------|
|0------------0-----------0-0-0----------------------|
|0--8-8-8-8 --0-8-8-8-8- -0-0-0-8-8-8-8- 0--3--0--7--|
|0------------0-----------0-0-0----------0--3--0--7--|

Guitar 1

|------------------------|
|------------------------|
|9-9-9-9-9-9-9-9-9-9-----|
| -----------------------|
|8-8-8-8-8-8-8-8-8-8-----|
|------------------------|

Guitar 2

|---------------------------|
|---------------------------|
|---------------------------|
|-------------------3-7-0---|
|-00-0-0--000-000--3-7-0----|
|-00-0-0--000-000--3-7-0----|
  .. . .  ... ...

|------------------------------------------|
|------------------------------------------|
|------------------------------------------|
|------------------------------------------|
|000000---00-00-00--0000000-00-00-00-------|
|000000---00-00-00--0000000-00-00-00-------|


Guitar 1

|-------------------------------------------|
|-------------------------------------------|
|-------------------------------------------|
|-------------------------------------------|
|5-8-12-10-7-3-5-----5-8-12-10-12-15~-12~---|
|-------------------------------------------|

Guitar 2

|----------------------------------------------------|
|----------------------------------------------------|
|----------------------------------------------------|
|-0~-------------------0~----------------------------|
|-0~-------------------0~----------------------00-00-|
|-0~-------------------0~----------------------00-00-|

Guitar 1

|------------------------------------------------------------------|
|------------------------------------------------------------------|
|------------------------------------------------------------------|
|------------------------------------------------------------------|
|0h3h5-0h5h7-0h7h8-0h8h10-0h10h12p10-0h3h5-0h5h7p5p0--0-3--0-7-----|
|---------------------------------------------------------0-3--0-7-|

Guitar 2

|------------------------------|
|------------------------------|
|------------------------------|
|------------------------------|
|0-0----000-0-0---0---0-3-0-7--|
|0-0----000-0-0---0---0-3-0-7--|

Chorus

Guitar 1

This is what Phil plays live.

|-------------------------------------------------|
|-------------------------------------------------|
|14--12-11--14-10--9--7-10-12--11--12-10--9--7----|
|-------------------------------------------------|
|12--10--9--12--8--7--5--8--10--9--10--8--7--5----|
|-------------------------------------------------|

Guitar 2

|-----------------------------------------|
|-----------------------------------------|
|-----------------------------------------|
|888888888-5555555555--000000000-33333----|
|888888888-5555555555--000000000-33333----|
|888888888-5555555555--000000000-33333----|

Both (X2)

|---------------------------------------------------------------------------|
|---------------------------------------------------------------------------|
|---------------------------------------------------------------------------|
|---------------------------------------------------------------------------|
|33333-3333--3333-3333-00000-00000-0000-00000-00000-00000-00-00-3*-0-0------|
|33333-3333--3333-3333-00000-00000-0000-00000-00000-00000-00-00----0-0------|

Both

|-------------------------------------------------------|
|-------------------------------------------------------|
|--------------9-9-9-9----------------------------------|
|-------------------------------------------------------|
|000-0--------8-8-8-8--0000-0------------7--------------|
|000-0--8-7-0----------0000-0---8-7-0-----10-7-0-8-7----|

Both (Guitar 2 Repeats)

|------------------------------------------|
|------------------------------------------|
|------------------------------------------|
|------------------------------------------|
|000000---00-00-00--0000000-00-00-00-------|
|000000---00-00-00--0000000-00-00-00-------|

Guitar 1

|----------------------------------------------|
|----------------------------------------------|
|----------------------------------------------|
|----------------------------------------------|
|8p07p05p0-8p07p05p0-8p07p05p0-7h8-8h10-8p7----|
|----------------------------------------------|


Both

|-------------------------------------------------|
|-------------------------------------------------|
|-------------------------------------------------|
|---------------------------------------- 0-0--0~-|
|000000---00-00-00--0000000-00-00-00---0-0--0~----|
|000000---00-00-00--0000000-00-00-00---0-0--0~----|
Tap to rate this tab
# A B C D E F G H I J K L M N O P Q R S T U V W X Y Z