Song name
# A B C D E F G H I J K L M N O P Q R S T U V W X Y Z

Of Mice And Men - Let Live tab

This my first Tab so please go easy. Please email me any changes to this to make it 
right. meverson8@gmail.com Enjoy!!

6/8/11: a few minor updates. its a lot closer than before!
6/6/12: intro is fixed and an edit after the first chorus!

Song: Let Live
Band: Of Mice & Men
Album: The flood (2011)

Intro
I was all for you...
e|----------------------------------------|
B|----------------------------------------|
G|----------------------------------------|
D|-77777777777777777777777777777777777777-|X2
A|-55555555555555555555555555555555555555-|
E|-00000000000000000000088888888888888888-|
P.M ......................................|

Then...
e|----------------------------------------|
B|----------------------------------------|
G|----------------------------------------|
D|-77777777777777777777777777777777777777-|X
A|-55555555555555555555555555555555555555-|
E|-00000000000000000000088888888888888888-|

e|---------0~---------0~------------0~---------0~--------|
B|-----------6~----------6~-------------6~--------6~-----|
G|-------7~--------7~--------5~--7~----------7~-------5~-|(let all ring)
D|-------------------------------------------------------|
A|-------------------------------------------------------|
E|-------------------------------------------------------|

Verse 1
e|----------------------------|    e|----------------------------|
B|----------------------------|    B|----------------------------|
G|----------------------------|    G|----------------------------|
D|----------------------------|X3  D|----------------------------|
A|---5-7-8-5--7--8-3-3---|    A|---5--7--8----5--7-7-5------|
E|-0---0--0-----0--0--0-------|    E|-0--0---0----0--0-----------|


e|----------------------------|    e|----------------------------|
B|----------------------------|    B|----------------------------|
G|----------------------------|    G|----------------------------|
D|---3---5--7--3--5--72-2----|X3  D|---3---5--7----3---5-5--3---|
A|----------------------------|    A|----------------------------|
E|-0---0--0-----0--0--0-------|    E|-0---0--0-----0--0----------|






Pre Chorus
                                              1st Ending      2nd Ending
e|-----------------------------------------|--------------|-------------|
B|-----------------------------------------|--------------|-------------|
G|-----------------------------------------|--------------|-------------|
D|-----8~~~--------------------10~~~-------|---0~~~-------|-000-000-000-|
A|-----8~~~--------------------10~~~-------|---0~~~-------|-000-000-000-|
E|-----8~~~--------------------10~~~-------|---0~~~-------|-000-000-000-|




CHORUS

e|----------------------------------------|
B|----------------------------------------|
G|----------------------------------------|
D|-77777777777777777777777777777777777777-|X4
A|-55555555555555555555555555555555555555-|
E|-00000000000000000000088888888888888888-|

Post-Chorus

e|-------------------------------------------------------------------|
B|-------------------------------------------------------------------|
G|-------------------------------------------------------------------|
D|--0-00-00--------0-00-00-------------0-00-00-------0-00-00---------| X2
A|--0-00-00--7733--0-00-00--7733-------0-00-00--7733-0-00-00--7733---|
E|--0-00-00--------0-00-00-------------0-00-00-------0-00-00---------|

e|------------------------------------|
B|------------------------------------|
G|------------------------------------|
D|----8~~------------5~~--------------|
A|----8~~------------5~~--------------|
E|----8~~------------5~~--------------|


 Verse 2 (Both of them work during this part, use one of them)
e|----------------------------|    e|----------------------------|
B|----------------------------|    B|----------------------------|
G|----------------------------|    G|----------------------------|
D|----------------------------|X3  D|----------------------------|
A|---5-7-8-5--7--8-3-3---|    A|---5--7--8----5--7-7-5------|
E|-0---0--0-----0--0--0-------|    E|-0--0---0----0--0-----------|


e|----------------------------|    e|----------------------------|
B|----------------------------|    B|----------------------------|
G|----------------------------|    G|----------------------------|
D|---3---5--7--3--5--72-2----|X3  D|---3---5--7----3---5-5--3---|
A|----------------------------|    A|----------------------------|
E|-0---0--0-----0--0--0-------|    E|-0---0--0-----0--0----------|


                                               1st Ending     2nd Ending
e|-----------------------------------------|--------------|-------------|
B|-----------------------------------------|--------------|-------------|
G|-----------------------------------------|--------------|-------------|
D|-----8~~~--------------------10~~~-------|---0~~~-------|-000-000-000-|
A|-----8~~~--------------------10~~~-------|---0~~~-------|-000-000-000-|
E|-----8~~~--------------------10~~~-------|---0~~~-------|-000-000-000-|

Chorus
e|----------------------------------------|
B|----------------------------------------|
G|----------------------------------------|
D|-77777777777777777777777777777777777777-|X4
A|-55555555555555555555555555555555555555-|
E|-00000000000000000000088888888888888888-|


e|-----------------------|
B|-----------------------|
G|-----------------------|
D|-00-00-00-00-000-000---|X2
A|-00-00-00-00-000-000---|
E|-00-00-00-00-000-000---|


e|----------------------------|   |----------|
B|----------------------------|   |----------|
G|----------------------------|   |----------|
D|-------------------00-00----|X2 |-0~~------|
A|-------------------00-00----|   |-0~~------|
E|-00-00-000-000-000-00-00----|   |-0~~------|

Clean Guitar
e|--------------------------------------|
B|----6-6-6---6-6-6---6-6-6---6-6-6-----|
G|----5-5-5---5-5-5---5-5-5---5-5-5-----|X2 (not too sure about this part)
D|--0-------0---------------------------|   (figure out stumming pattern)
A|------------------0-------------------|
E|--------------------------0-----------|







Last Chorus:
e|----------------------------------------|
B|----------------------------------------|
G|----------------------------------------|
D|-77777777777777777777777777777777777777-|X4
A|-55555555555555555555555555555555555555-|
E|-00000000000000000000088888888888888888-|




Outro:
e|---------0~---------0~------------0~-----------0~--------|
B|-----------6~----------6~-------------6~----------6~-----|
G|-------7~--------7~-------5~-----7~------------7~-----5~-|(let all ring)
D|---------------------------------------------------------|
A|---------------------------------------------------------|
E|---------------------------------------------------------|
Tap to rate this tab
 
# A B C D E F G H I J K L M N O P Q R S T U V W X Y Z